Oops, an error
Loading. Please wait.

Deja Entendu Tab

15,681 views 33 this week
4 commentsread comments
1 2 3 4 5
x 15
add to favorites
launch autoscroll
font size
0
reset
how to read this tab
guitar tuner
Autoscroll
slow
fast
+/-
esc
set tempo
stop
Help us to improve Ultimate-Guitar.com Take our survey!
×
Author
Artist: Brand New 
Album: Deja Entendu
Songs:
1. Tautou
2. Sic Transit Gloria... Glory Fades
3. I Will Play My Game Beneath the Spin Light
4. Okay I Believe You, but My Tommy Gun Don't
5. The Quiet Things That No One Ever Knows
6. The Boy Who Blocked His Own Shot
7. Jaws Theme Swimming
8. Me vs. Maradona vs. Elvis
9. Guernica
10. Good to Know That If I Ever Need Attention All I Have to Do Is Die
11. Play Crack the Sky

1. Song: Tautou

D#G#C#F#A#D#
 
[Part One]
e|-------------------------------------------------------------------------------|
B|-------------------------------------------------------------------------------|
G|-8-9-8-------------------------9-8--6-4--9-8--6-4------------------------------|
D|-------9---6-6-7-7--7-7-6-4-6---------------------6-6-7-7-7-7-7-7-4-4-4-6-6-6--|
A|-------------------------------------------------------------------------------|
E|-------------------------------------------------------------------------------|

[Part 2] 
e|-----------------|----|-----------------|----|-----------------|----|-----------------|----|
B|---------5-------|----|---------5-------|----|---------5-------|----|---------4-------|----|
G|-----6-----6-----|----|-----6-----6---6-|----|-----6-----6-----|----|-----6-----6---6-|----|
D|---6---6-----6---|----|---6---6-----6---|----|---6---6-----6---|----|---6---6-----6---|----|
A|-4-------------4-|-x2-|-0---------------|-x2-|-4-------------4-|-x2-|-2---------------|-x2-|
E|-----------------|----|-----------------|----|-----------------|----|-----------------|----|

2. Song: Sic Transit Gloria...Glory Fades

D#G#C#F#A#D#

[Intro]
(No Guitar)
[Verse] 
e|----|
B|----|
G|-9~-|
D|-9~-|
A|-7~-|
E|----|

[Pre-Chorus]
e|-x-x-x-x-|
B|-x-x-x-x-|
G|-x-x-x-x-|
D|-x-x-x-x-|
A|-x-x-x-x-|
E|-x-x-x-x-|

[Chorus]
e|--------------------------------------------------|
B|--------------------------------------------------|
G|-6---------2-4-6----4-6-11----9----2--------------|
D|-6-x8-2----2-4-6-x4-4-6-11-x4-9-x4-2-x8-4----2----|
A|-4----2-x8-0-2-4----2-4-9-----7----0----4-x4-2-x4-| x2
E|------0---------------------------------2----0----|

[Post-Chorus]
e|--------------|
B|--------------|
G|--------------|
D|-4----x-x-x-x-|
A|-4-x4-x-x-x-x-|
E|-2----x-x-x-x-|

[Verse] 
e|----|
B|----|
G|-9~-|
D|-9~-|
A|-7~-|
E|----|

[Chorus]
e|--------------------------------------------------|
B|--------------------------------------------------|
G|-6---------2-4-6----4-6-11----9----2--------------|
D|-6-x8-2----2-4-6-x4-4-6-11-x4-9-x4-2-x8-4----2----|
A|-4----2-x8-0-2-4----2-4-9-----7----0----4-x4-2-x4-| x2
E|------0---------------------------------2----0----|

[Bridge]
(Guitar 1)
e|----|----|-------------------------------------------------------------------------|
B|----|----|-------------------------------------------------------------------------|
G|-6~-|----|-9-----6----2----6----2------------------------6----2----6----2----9-----|
D|-6~-|----|-9-x16-6-x2-2-x3-6-x2-2-x3-4----2----4----2----6-x2-2-x3-6-x2-2-x3-9-x16-|
A|-4~-|-x2-|-7-----4----0----4----0----4-x2-2-x3-4-x4-2-x4-4----0----4----0----7-----|
E|----|----|---------------------------2----0----2----0------------------------------|

(Guitar 2)
e|------------------------------------------------------------0-|
B|-/5-2-0-0-0-0-0-/5-2-0-0-0-0-0-/5-4-0-0-0-0-0-5h7-0-0-0-0-0---|
G|--------------------------------------------------------------|
D|--------------------------------------------------------------|
A|--------------------------------------------------------------|
E|--------------------------------------------------------------|

[Chorus]
e|--------------------------------------------------|
B|--------------------------------------------------|
G|-6---------2-4-6----4-6-11----9----2--------------|
D|-6-x8-2----2-4-6-x4-4-6-11-x4-9-x4-2-x8-4----2----|
A|-4----2-x8-0-2-4----2-4-9-----7----0----4-x4-2-x4-| x2
E|------0---------------------------------2----0----|

3. Song: I Will Play My Game Beneath The Spin Light

D#G#C#F#A#D#

[Verse]
   Am   E    C    F    G
e|-0----0----0----x----0----|
B|-1----0----1----1----2----|
G|-2----1----0----2----0----|
D|-2----0----2----3----0----|
A|-0-x8-2-x8-3-x8-3-x3-2-x6-| x4
E|-x----0----x----x----3----|

[Chorus]
(Guitar 1)
   C     F     G
e|-------1-----3-----|
B|-1-----1-----3-----|
G|-0-----2-----0-----|
D|-2-x16-3-z16-0-----|
A|-3-----------2-x16-|
E|-------------3-----|

(Guitar 2)
   C2    F2    G2   
e|-------------------|
B|-------------------|
G|-5-----------------|
D|-5-----3-----5-----|
A|-3-x16-3-x16-5-x16-|
E|-------1-----3-----|

[Post-Chorus] 
       Am     E          C
e|-----0-0--------|----|-0-|
B|-----1-1--------|----|-1-|
G|-----2-2----1-1-|----|-0-|
D|-2-2-2-2----0-0-|----|-2-|
A|-0-0-0-0--2-2-2-|-x2-|-3-|
E|----------0-0-0-|----|---|

[Verse]
   Am   E    C    F    G
e|-0----0----0----x----0----|
B|-1----0----1----1----2----|
G|-2----1----0----2----0----|
D|-2----0----2----3----0----|
A|-0-x8-2-x8-3-x8-3-x3-2-x6-| x4
E|-x----0----x----x----3----|

[Chorus]
(Guitar 1)
   C     F     G
e|-------1-----3-----|
B|-1-----1-----3-----|
G|-0-----2-----0-----|
D|-2-x16-3-z16-0-----|
A|-3-----------2-x16-|
E|-------------3-----|

(Guitar 2)
   C2    F2    G2   
e|-------------------|
B|-------------------|
G|-5-----------------|
D|-5-----3-----5-----|
A|-3-x16-3-x16-5-x16-|
E|-------1-----3-----|

[Post-Chorus] 
       Am     E          C
e|-----0-0--------|----|-0-|
B|-----1-1--------|----|-1-|
G|-----2-2----1-1-|----|-0-|
D|-2-2-2-2----0-0-|----|-2-|
A|-0-0-0-0--2-2-2-|-x2-|-3-|
E|----------0-0-0-|----|---|

[Bridge]
(Guitar 1)
      Am     E         
e|-----0-0--------|
B|-----1-1--------|
G|-----2-2----1-1-|
D|-2-2-2-2----0-0-|
A|-0-0-0-0--2-2-2-| x2
E|----------0-0-0-|

(Guitar 2)
e|-----------------|
B|-5---5-----5---5-|
G|---5---5h7---7---|
D|-----------------|
A|-----------------| x2
E|-----------------|

[Breakdown]
(Guitar 1)
e|-------------------------|-------------------------|
B|-------------------------|-------------------------|
G|-5-----2-----------------|-5-----2-----------------|
D|-5-x16-2-x16-2-----5-----|-5-x16-2-x16-2-----5-----|
A|-3-----0-----2-x16-5-x16-|-3-----0-----2-x16-5-x16-|
E|-------------0-----3-----|-------------0-----3-----|

(Guitar 2)
e|-------------------------|-------------------|-----|
B|-------------------------|-------------------|-----|
G|-12----------------------|-12---10---9---7---|-----|
D|---x64-------------------|---x4---x4--x4--x4-|-----|
A|-10----------------------|-10---8----7---5---|-x3--|
E|-------------------------|-------------------|-----|

(Guitar 1)
       Am     E         
e|-----0-0--------|
B|-----1-1--------|
G|-----2-2----1-1-|
D|-2-2-2-2----0-0-|
A|-0-0-0-0--2-2-2-| x2
E|----------0-0-0-|

[Chorus]
(Guitar 1)
   C     F     G
e|-------1-----3-----|
B|-1-----1-----3-----|
G|-0-----2-----0-----|
D|-2-x16-3-z16-0-----|
A|-3-----------2-x16-|
E|-------------3-----|

(Guitar 2)
   C2    F2    G2   
e|-------------------|
B|-------------------|
G|-5-----------------|
D|-5-----3-----5-----|
A|-3-x16-3-x16-5-x16-|
E|-------1-----3-----|

[Outro]
(Guitar 1)
       Am     E         
e|-----0-0--------|
B|-----1-1--------|
G|-----2-2----1-1-|
D|-2-2-2-2----0-0-|
A|-0-0-0-0--2-2-2-| x2
E|----------0-0-0-|

(Guitar 2)
e|-12~-13~-|
B|---------|
G|---------|
D|---------|
A|---------| x8
E|---------|


4. Song: Okay I Believe You, But My Tommy Gun Don’t

D#G#C#F#A#D#

[Intro]
e|-----------------|----|
B|-----------------|----|
G|-----------------|----|
D|-5----9-----2----|----|
A|-7-x8-10-x4-3-x4-|-x2-|
E|-----------------|----|

[Verse 1]
(Guitar 1)
e|-----------------|-----|----------------------|---------------------------------|
B|-----------------|-----|----------------------|---------------------------------|
G|-----------------|-----|----------------------|---------------------------------|
D|-5----9-----2----|-----|-4----4----9-----9----|-4----4----9-----9----5----4-----|
A|-7-x8-10-x4-3-x4-|-x10-|-5-x8-2-x6-10-x8-7-x8-|-5-x8-2-x6-10-x8-7-x4-7-x4-5-x16-|
E|-----------------|-----|----------------------|---------------------------------|

[Verse 2]
(Guitar 2)
e|-----------------|-----|----------------------|---------------------------------|
B|-----------------|-----|----------------------|---------------------------------|
G|-----------------|-----|----------------------|---------------------------------|
D|-5----9-----2----|-----|-4----4----9-----9----|-4----4----9-----9----5----4-----|
A|-7-x8-10-x4-3-x4-|-x10-|-5-x8-2-x6-10-x8-7-x8-|-5-x8-2-x6-10-x8-7-x4-7-x4-5-x16-|
E|-----------------|-----|----------------------|---------------------------------|

(Guitar 2)
e|-----------------------------------|
B|-----------------------------------|
G|-----------------------------------|
D|---5---5---5---5----9----9---2---2-|
A|-7---7---7---7---10---10---3---3---| x10
E|-----------------------------------|

e|----------------------------------------------------------------------|
B|----------------------------------------------------------------------|
G|-----------------------------------------0--------0-------0-------0---|
D|------0--------0-------0-------0-------9---9----9---9---9---9---9---9-|
A|----9---9----9---9---9---9---9---9--10-------10-------7-------7-------| x2
E|-10-------10-------7-------7------------------------------------------|

e|----------------------------------------|
B|----------------------------------------|
G|----------------------------------------|
D|------0--------0---------0--------------|
A|----9---9----9---9----12---12----12-12/-|
E|-10-------10-------10---------10----10/-|

[Chorus]
(Guitar 1)
e|---------------------|
B|---------------------|
G|------5---------5----|
D|-5----5-x6-2----5-x6-|
A|-5-x6-3----2-x6-3----| x2
E|-3---------0---------|

(Guitar 2)
e|-------------------------------------------------|
B|-------------------------------------------------|
G|-------------------------------------------------|
D|-5-5-5-7-5-4-5-5-5-5-5-5-5-----5-7-5-4-5-9-9-9-9-|
A|---------------------------7-7-------------------|
E|-------------------------------------------------|
[Verse 2]
(Guitar 2)
e|-----------------|-----|----------------------|---------------------------------|
B|-----------------|-----|----------------------|---------------------------------|
G|-----------------|-----|----------------------|---------------------------------|
D|-5----9-----2----|-----|-4----4----9-----9----|-4----4----9-----9----5----4-----|
A|-7-x8-10-x4-3-x4-|-x10-|-5-x8-2-x6-10-x8-7-x8-|-5-x8-2-x6-10-x8-7-x4-7-x4-5-x16-|
E|-----------------|-----|----------------------|---------------------------------|

(Guitar 2)
e|-----------------------------------|
B|-----------------------------------|
G|-----------------------------------|
D|---5---5---5---5----9----9---2---2-|
A|-7---7---7---7---10---10---3---3---| x10
E|-----------------------------------|

e|----------------------------------------------------------------------|
B|----------------------------------------------------------------------|
G|-----------------------------------------0--------0-------0-------0---|
D|------0--------0-------0-------0-------9---9----9---9---9---9---9---9-|
A|----9---9----9---9---9---9---9---9--10-------10-------7-------7-------| x2
E|-10-------10-------7-------7------------------------------------------|

e|----------------------------------------|
B|----------------------------------------|
G|----------------------------------------|
D|------0--------0---------0--------------|
A|----9---9----9---9----12---12----12-12/-|
E|-10-------10-------10---------10----10/-|

[Chorus]
(Guitar 1)
e|---------------------|
B|---------------------|
G|------5---------5----|
D|-5----5-x6-2----5-x6-|
A|-5-x6-3----2-x6-3----| x2
E|-3---------0---------|

(Guitar 2)
e|-------------------------------------------------|
B|-------------------------------------------------|
G|-------------------------------------------------|
D|-5-5-5-7-5-4-5-5-5-5-5-5-5-----5-7-5-4-5-9-9-9-9-|
A|---------------------------7-7-------------------|
E|-------------------------------------------------|

[Bridge]
(Guitar 1)
e|----------------|----|--------------------------|----|
B|----------------|----|--------------------------|----|
G|-----9~---------|----|-----9~-------------------|----|
D|-2~--9~--2~--2~-|----|-2~--9~-------------------|----|
A|-2~--7~--2~--2~-|-x4-|-2~--7~-------3-----------|-x4-|
E|-0~------0~--0~-|----|-0~-------2-3---3-2-3-2-3-|----|

[Verse]
(Guitar 1)
e|-------------------|
B|-------------------|
G|-------------------|
D|-2----5----3----2~-|
A|-2-x8-5-x4-3-x3-2~-| x6
E|-0----3----1----0~-|

[Outro]
e|------------------------------------------|
B|------------------------------------------|
G|-----9~-----------------------9~----------|
D|-2~--9~-------------------2~--9~----------|
A|-2~--7~------3------------2~--7~------3---|
E|-0~------2-3---3-2-3-2-3--0~------2-3---3-|


5. Song: The Quiet Things That No One Ever Knows

D#G#C#F#A#D#

[Intro]
(Guitar 1)
e|---3p2-2~------3p2-0~------3p2-2~------3p2-2-2h3-5--5-|
B|----------3~----------3~----------3~------------------|
G|------------------------------------------------------|
D|-------------------------------------0----------------|
A|-------------------------3----------------------------|
E|-3-----------0----------------------------------------|

(Guitar 1)
e|---------10-------|----|-------------15----------|----|
B|-7-8-7-8----8-7-8-|----|-12-13-12-13----13-12-13-|----|
G|------------------|----|-------------------------|----|
D|------------------|----|-------------------------|----|
A|------------------|-x4-|-------------------------|-x2-| x3
E|------------------|----|-------------------------|----|

(Guitar 2)
e|-------------------------|
B|-------------------------|
G|-------------5-----7-----|
D|-5-----2-----5-x16-7-x16-|
A|-5-x16-2-x16-3-----5-----|
E|-3-----0-----------------|

[Verse] x2
(Guitar 1)
e|---------------------------------|
B|---------------------------------|
G|---------------------------------|
D|---------------5-x16-------5-x16-|
A|-5-5x----5-x16-3-----2-x16-3-----|
E|-3-3x--8/3-----------0-----------|

(Guitar 2)
e|--------------|
B|--------------|
G|-12/11--11--7-|
D|--------------|
A|-10/9---9---5-|
E|--------------|

[Chorus]
(Guitar 1)
e|-------------------------|
B|-------------------------|
G|-------------5-----7-----|
D|-5-----2-----5-x16-7-x16-|
A|-5-x16-2-x16-3-----5-----|
E|-3-----0-----------------|

(Guitar 2)
e|---------10-------|----|-------------15----------|----|
B|-7-8-7-8----8-7-8-|----|-12-13-12-13----13-12-13-|----|
G|------------------|----|-------------------------|----|
D|------------------|----|-------------------------|----|
A|------------------|-x4-|-------------------------|-x2-| x3
E|------------------|----|-------------------------|----|

[Bridge]
(Guitar 1)
e|---3p2-2~------3p2-0~------3p2-2~------3p2-2-2h3-5--5-|
B|----------3~----------3~----------3~------------------|
G|------------------------------------------------------|
D|-------------------------------------0----------------|
A|-------------------------3----------------------------| x4
E|-3-----------0----------------------------------------|

(Guitar 2)
e|----------------|
B|----------------|
G|---------5~--7~-|
D|-5~--2~--5~--7~-|
A|-5~--2~--3~--5~-| x2
E|-3~--0~---------|

e|-------------------------|
B|-------------------------|
G|-------------5-----7-----|
D|-5-----2-----5-x16-7-x16-|
A|-5-x16-2-x16-3-----5-----|
E|-3-----0-----------------|

(Guitar 1)
e|---------10-------|----|-------------15----------|----|
B|-7-8-7-8----8-7-8-|----|-12-13-12-13----13-12-13-|----|
G|------------------|----|-------------------------|----|
D|------------------|----|-------------------------|----|
A|------------------|-x4-|-------------------------|-x2-| x3
E|------------------|----|-------------------------|----|

(Guitar 2)
e|-------------------------|
B|-------------------------|
G|-------------5-----7-----|
D|-5-----2-----5-x16-7-x16-|
A|-5-x16-2-x16-3-----5-----|
E|-3-----0-----------------|

6. Song: The Boy Who Blocked His Own Shot

D#G#C#F#A#D#

[Intro]
e|-3-----3-----3-----10-----10-----3----|
B|-0-----1-----0-----0------0------0----|
G|-0-----0-----0-----0------7------0----|
D|-0-----0-----0-----0------0------2----|
A|-2-x8--2-x4--2-x4--9--x8--9--x4--3-x8-|
E|-3-----3-----3-----10-----10-----x----|

[Verse]
e|-3-----3-----3-----10-----10-----3----|
B|-0-----1-----0-----0------0------0----|
G|-0-----0-----0-----0------7------0----|
D|-0-----0-----0-----0------0------2----|
A|-2-x8--2-x4--2-x4--9--x8--9--x4--3-x8-| x4
E|-3-----3-----3-----10-----10-----x----|

[Chorus]
e|-10---5---3----3----10---5---3--|
B|-0----0---0----3----0----0---0--|
G|-0----0---0----0----0----0---0--|
D|-9----4---2----2----9----4---2--|
A|-10---5---3-x6-3-x6-10---5---3--|
E|-x----x---x----x----x----x---x--|

[Post-Chorus]
(Guitar 1)
e|-3-----3-----3-----10-----10-----3----|
B|-0-----1-----0-----0------0------0----|
G|-0-----0-----0-----0------7------0----|
D|-0-----0-----0-----0------0------2----|
A|-2-x8--2-x4--2-x4--9--x8--9--x4--3-x8-|
E|-3-----3-----3-----10-----10-----x----|

(Guitar 2)
e|----------------------------------------------|
B|---------------------20---19------------------|
G|-12---16---14---19-----x4---x4-14---16--/12---|
D|---x8---x3---x5---x8-17---16-----x6---x3---x4-|
A|-10---14---12---17-------------12---14--/10---|
E|----------------------------------------------|

[Verse 2]
(Guitar 1)
e|-3-----3-----3-----10-----10-----3----|
B|-0-----1-----0-----0------0------0----|
G|-0-----0-----0-----0------7------0----|
D|-0-----0-----0-----0------0------2----|
A|-2-x8--2-x4--2-x4--9--x8--9--x4--3-x8-| x4
E|-3-----3-----3-----10-----10-----x----|

(Guitar 2)
e|-----10-|------------|
B|-7-8----|----------8-|
G|--------|--------7---|
D|--------|-7--5-9-----|
A|--------|------------|
E|--------|------------|

[Chorus]
e|-10---5---3----3----10---5---3--|
B|-0----0---0----3----0----0---0--|
G|-0----0---0----0----0----0---0--|
D|-9----4---2----2----9----4---2--|
A|-10---5---3-x6-3-x6-10---5---3--|
E|-x----x---x----x----x----x---x--|

[Bridge]
(Guitar 1)
e|-3-----3-----3-----10-----10-----3----|
B|-0-----1-----0-----0------0------0----|
G|-0-----0-----0-----0------7------0----|
D|-0-----0-----0-----0------0------2----|
A|-2-x8--2-x4--2-x4--9--x8--9--x4--3-x8-| x3
E|-3-----3-----3-----10-----10-----x----|

(Guitar 2)
e|-------------------------------|
B|---------------------20---19---|
G|-12---16---14---19-----x4---x4-|
D|---x8---x3---x5---x8-17---16---|
A|-10---14---12---17-------------|
E|-------------------------------|

[Outro]
e|-3---5-----3----3----3----5----3---3--|
B|-0---0-----0----3----0----0----0---3--|
G|-0---0-----0----0----0----0----0---0--|
D|-0---4-----2----2----0----4----2---2--|
A|-2---5-x8--3-x8-3-x8-2-x8-5-x8-3---3--|
E|-3---x-----x----x----3----x----x---x--|

7. Song: Jaws Theme Swimming

D#G#C#F#A#D#

[Intro/Verse]
e|---------------------------------------------------0-|
B|-----3-3-----3-3-----3-3------5-5-----3-3-----3-3--3-|
G|-----4-4-----4-4-----4-4------4-4-----4-4-----4-4--0-|
D|---------------------------------------------------2-|
A|-0h2-----2p0----------------------0h2-----2p0------2-| x4
E|-----------------0h3------3/2----------------------0-|

[Pre-Chorus]
e|-5---0-|
B|-3---3-|
G|-0---0-|
D|-0---2-|
A|-2---2-| x3
E|-3---0-|

[Chorus]
e|--------------------------------------------------------------------------------------------------|
B|--------------------------------------------------------------------------------------------------|
G|--------------------------------------------------------------------------------------------------|
D|--------------------------------------------------------------------------------------------------|
A|-5---5---5---5---5---5---5---5---5---5---4---7---9---9---9---9---9---9---9---9---9---9---12---7---|
E|-3-0-3-0-3-0-3-0-3-0-3-0-3-0-3-0-3-0-3-0-2-0-5-0-7-0-7-0-7-0-7-0-7-0-7-0-7-0-7-0-7-0-7-0-10-0-5-0-|

[Verse]
e|---------------------------------------------------0-|
B|-----3-3-----3-3-----3-3------5-5-----3-3-----3-3--3-|
G|-----4-4-----4-4-----4-4------4-4-----4-4-----4-4--0-|
D|---------------------------------------------------2-|
A|-0h2-----2p0----------------------0h2-----2p0------2-| x4
E|-----------------0h3------3/2----------------------0-|

[Pre-Chorus]
e|-5---0-|
B|-3---3-|
G|-0---0-|
D|-0---2-|
A|-2---2-| x3
E|-3---0-|

[Chorus]
e|--------------------------------------------------------------------------------------------------|
B|--------------------------------------------------------------------------------------------------|
G|--------------------------------------------------------------------------------------------------|
D|--------------------------------------------------------------------------------------------------|
A|-5---5---5---5---5---5---5---5---5---5---4---7---9---9---9---9---9---9---9---9---9---9---12---7---|
E|-3-0-3-0-3-0-3-0-3-0-3-0-3-0-3-0-3-0-3-0-2-0-5-0-7-0-7-0-7-0-7-0-7-0-7-0-7-0-7-0-7-0-7-0-10-0-5-0-|

[Bridge]
e|-------------|
B|-------------|
G|-------9-----|
D|-7-----7-----|
A|-5-x12-5-x12-| x4
E|-3-----5-----|

(Guitar 1)
e|-0---3---5---0---3-0-5-0-|----|-0~--5~--12~-|-0---3---5---0---3-0-5-0-|----|-0~--5~--7~-|
B|---0---0---0---0---------|----|-------------|---0---0---0---0---------|----|------------|
G|-------------------------|----|-------------|-------------------------|----|------------|
D|-------------------------|----|-------------|-------------------------|----|------------|
A|-------------------------|-x3-|-------------|-------------------------|-x3-|------------|
E|-------------------------|----|-------------|-------------------------|----|------------|

(Guitar 2)
e|------------------------|----------------|
B|---3--------------------|---3------------|
G|---4--------------------|---4------------|
D|------------------------|----------------|
A|-2----2-2-2----2-2----0-|-2---2-2-2----2-| x2
E|--------3-3--3-0-0--2---|-------3-3--3-0-|

(Guitar 1)
e|-12--------12~----------------12~------------7-|----|-12-------|
B|----12-10-------10~------10~-------10~----10---|----|----12-10-|
G|---------------------9~-----------------9------|----|----------|
D|-----------------------------------------------|----|----------|
A|-----------------------------------------------|-x2-|----------|
E|-----------------------------------------------|----|----------|

(Guitar 2)
e|------------------------|------------------|----------------|------------------|
B|------------------------|------------------|----------------|------------------|
G|-9-------4----4----4----|------4----4------|-4----4----4----|------4----4----4-|
D|-9--4-5--4----5----2----|-4-5--4----5----2-|-4----5----2----|-4-5--4----5----2-|
A|-7--4-5--2-x3-2-x3-2-x3-|-4-5--2-x3-2-x3-2-|-2-x3-2-x3-2-x3-|-4-5--2-x3-2-x3-2-|
E|-7--2-3--2----3----0----|-2-3--2----3----0-|-2----3----0----|-2-3--2----3----0-|

[Outro]
e|-------------|
B|-------------|
G|-------9-----|
D|-7-----7-----|
A|-5-x12-5-x12-| x2
E|-3-----5-----|

e|-5---0-|
B|-3---3-|
G|-0---0-|
D|-0---2-|
A|-2---2-| x3
E|-3---0-|


8. Song: Me Vs Maradona Vs Elvis

C#G#C#F#A#D#

[Intro]
e|---------------------|----|---------------------|----|
B|---------------------|----|---------------------|----|
G|-7----6----4----2----|----|-7----6--------------|----|
D|-0----0----0----0----|----|-5----5----9----7----|----|
A|-0-x3-0-x5-0-x3-0-x5-|-x2-|-5-x3-5-x5-5-x3-5-x5-|-x2-|
E|-0----0----0----0----|----|-5----5----5----5----|----|

[Verse] x2
e|---------------------|----|---------------------|----|
B|---------------------|----|---------------------|----|
G|-7----6----4----2----|----|-7----6--------------|----|
D|-0----0----0----0----|----|-5----5----9----7----|----|
A|-0-x3-0-x5-0-x3-0-x5-|-x2-|-5-x3-5-x5-5-x3-5-x5-|-x2-|
E|-0----0----0----0----|----|-5----5----5----5----|----|

e|-----------------------|---------------------|
B|-----------------------|---------------------|
G|-----------------------|---------------------|
D|-7----9----12----11----|-7----9----12---11---|
A|-4-x3-5-x5-9--x3-7--x5-|-4-x3-5-x5-9-x8-7-z8-|
E|-4----5----9-----7-----|-4----5----9----7----|

[Chorus]
e|-------------|----|-------------|----|
B|-------------|----|-------------|----|
G|-------------|----|-------------|----|
D|-11----11----|----|-7-7----9----|----|
A|-9--x8-7--x8-|-x2-|-4/5-x4-7-x8-|-x2-|
E|-0-----7-----|----|-4/5----7----|----|

[Verse] x2
e|---------------------|----|---------------------|----|
B|---------------------|----|---------------------|----|
G|-7----6----4----2----|----|-7----6--------------|----|
D|-0----0----0----0----|----|-5----5----9----7----|----|
A|-0-x3-0-x5-0-x3-0-x5-|-x2-|-5-x3-5-x5-5-x3-5-x5-|-x2-|
E|-0----0----0----0----|----|-5----5----5----5----|----|

e|-----------------------|---------------------|
B|-----------------------|---------------------|
G|-----------------------|---------------------|
D|-7----9----12----11----|-7----9----12---11---|
A|-4-x3-5-x5-9--x3-7--x5-|-4-x3-5-x5-9-x8-7-z8-|
E|-4----5----9-----7-----|-4----5----9----7----|

[Chorus]
e|-------------|----|-------------|----|
B|-------------|----|-------------|----|
G|-------------|----|-------------|----|
D|-11----11----|----|-7-7----9----|----|
A|-9--x8-7--x8-|-x2-|-4/5-x4-7-x8-|-x2-|
E|-0-----7-----|----|-4/5----7----|----|

[Bridge]
(Guitar 1)
e|----------------------------|
B|----------------------------|
G|----------------------------|
D|-0~--7~---0~---7~---2~---5~-|
A|-0~--7~---0~---7~---2~---5~-| x2
E|-0~--7~---0~---7~---2~---5~-|

(Guitar 2) x2
e|-----------5-----|----|---------5-----|----|
B|---------5---5---|----|-----------5---|----|
G|-------7-------7-|----|-------6-----6-|----|
D|-----0-----------|----|-----7---------|----|
A|---0-------------|-x2-|---5-----------|-x2-| x2
E|-0---------------|----|-5-------------|----|

e|---------7-------|----|
B|-------7---7-----|----|
G|-----8-------8---|----|
D|---9-----------9-|----|
A|-7---------------|-x2-|
E|-----------------|----|

[Final Chorus]
e|-------------|----|---------------|----|
B|-------------|----|---------------|----|
G|-------------|----|---------------|----|
D|-0----9-7----|----|-4/5----*-7----|----|
A|-0-x3-9-7-x8-|-x2-|-4/5-x5-*-7-x8-|-x2-| x2
E|-0----9-7----|----|-4/5----*-7----|----| 

[Outro]
e|---------------------|----|---------------------|----|
B|---------------------|----|---------------------|----|
G|-7----6----4----2----|----|-7----6--------------|----|
D|-0----0----0----0----|----|-5----5----9----7----|----|
A|-0-x3-0-x5-0-x3-0-x5-|-x2-|-5-x3-5-x5-5-x3-5-x5-|-x2-|
E|-0----0----0----0----|----|-5----5----5----5----|----|


9. Song: Guernica

D#G#C#F#A#D#

[Intro]
e|-12*-----7*-|
B|-------7*---|
G|----7*------|
D|------------|
A|------------|
E|------------|

[Verse]
e|-----------------------------------------------------------|
B|---------------------------------------------3-----3-3/5-5-|
G|-----------------------------------------0-------0---------|
D|------------7-7-5-5-4-4-5-5------------4---4---4-----------|
A|-------5-x8-----------------------2h3----------------------|
E|-0-x16----------------------3-x16--------------------------|

[Pre-Chorus]
(Guitar 1)
e|-0---0---------------0---0-0--0-0------------|
B|-5-3-5-7---8-7-5-----5-3-5-7--3-5--10-7-7-10-|
G|-----------------7---------------------------|
D|---------------------------------------------|
A|---------------------------------------------| x2
E|---------------------------------------------|

(Guitar 2)
e|-12*--------12*----12*-|
B|-----7*---------7*-----|
G|--------7*-------------|
D|-----------------------|
A|-----------------------| x2
E|-----------------------|

[Chorus]
e|------------------------------------------|
B|------------------------------------------|
G|-4----7---------4----2--------------------|
D|-4-x4-7-x4-5----4-x4-2-x4-2-x-x-2-x-2-x-2-|
A|-2----5----5-x8-2----0----2-x-x-2-x-2-x-2-| x2
E|-----------3--------------0-0-0-0-0-0-0-0-|

[Verse]
e|-----------------------------------------------------------|
B|---------------------------------------------3-----3-3/5-5-|
G|-----------------------------------------0-------0---------|
D|------------7-7-5-5-4-4-5-5------------4---4---4-----------|
A|-------5-x8-----------------------2h3----------------------|
E|-0-x16----------------------3-x16--------------------------|

[Pre-Chorus]
(Guitar 1)
e|-0---0---------------0---0-0--0-0------------|
B|-5-3-5-7---8-7-5-----5-3-5-7--3-5--10-7-7-10-|
G|-----------------7---------------------------|
D|---------------------------------------------|
A|---------------------------------------------| x2
E|---------------------------------------------|

(Guitar 2)
e|-12*--------12*----12*-|
B|-----7*---------7*-----|
G|--------7*-------------|
D|-----------------------|
A|-----------------------| x2
E|-----------------------|

[Chorus]
e|------------------------------------------|
B|------------------------------------------|
G|-4----7---------4----2--------------------|
D|-4-x4-7-x4-5----4-x4-2-x4-2-x-x-2-x-2-x-2-|
A|-2----5----5-x8-2----0----2-x-x-2-x-2-x-2-| x2
E|-----------3--------------0-0-0-0-0-0-0-0-|

[Bridge]
(Guitar 1)
e|-----------------------|-----------------|----|
B|-----------------------|-----------------|----|
G|-9---7---4---5---9---7-|---------4-4-----|----|
D|-9---7---4---5---9---7-|-----5-5-----5-5-|----|
A|-7---5---2---3---7---5-|-7-7-------------|-x8-|
E|-----------------------|-----------------|----|

(Guitar 2)
e|---------------------------------------|
B|---------------------------------------|
G|-9---7---4---5---9---7-------5----4----|
D|-9---7---4---5---9---7--2----5-x2-5-x2-|
A|-7---5---2---3---7---5--0-x4-3----2----| x2
E|------------------------x--------------|

[Chorus]
e|------------------------------------------|
B|------------------------------------------|
G|-4----7---------4----2--------------------|
D|-4-x4-7-x4-5----4-x4-2-x4-2-x-x-2-x-2-x-2-|
A|-2----5----5-x8-2----0----2-x-x-2-x-2-x-2-| x2
E|-----------3--------------0-0-0-0-0-0-0-0-|


10. Song: Good To Know That If I Ever Need Attention All I Have To Do Die

D#G#C#F#A#D#

[Intro/Verse]
(Guitar 1)
e|--------------|----|--------------|----|--------------|----|-------------|-------------|
B|------------0-|----|------------0-|----|------------0-|----|-----------0-|-----------0-|
G|-------9------|----|-------9------|----|-------9------|----|------9------|------9------|
D|----10---10---|----|----10---10---|----|----10---10---|----|---10---10---|---10---10---|
A|-12-----------|-x2-|-11-----------|-x2-|-10-----------|-x2-|-8-----------|-7-----------| x6
E|--------------|----|--------------|----|--------------|----|-------------|-------------|

(Guitar 2)
e|------------------------------------|
B|--------------12-10------8~---------|
G|-9-----9-------------7h9-----5h7----|
D|---9~----9/7---------------------5~-|
A|------------------------------------| x2
E|------------------------------------|

e|-12~--12~--15~---12~---10~-|
B|-12~--13~--13~---13~---13~-|
G|-12~-------12~---12~-------|
D|---------------------------|
A|---------------------------| x4
E|---------------------------|

[Chorus]
(Guitar 1)
e|-----------------------------------------|
B|-----------------------------------------|
G|-5----4----2-----------------------------|
D|-5-x8-4-x8-2-x8-5----3----2----5----3----|
A|-3----2----0----5-x8-3-x8-2-x8-5-x8-3-x8-| x2
E|----------------3----1----0----3----1----|

(Guitar 2)
e|-8----10----12----10----15----12----12----10----|
B|-8-x8-12-x8-10-x8-10-x8-13-x8-12-x8-13-x8-12-x8-|
G|------------------------------------------------|
D|------------------------------------------------|
A|------------------------------------------------|
E|------------------------------------------------|

[Verse]
(Guitar 1)
e|--------------|----|--------------|----|--------------|----|-------------|-------------|
B|------------0-|----|------------0-|----|------------0-|----|-----------0-|-----------0-|
G|-------9------|----|-------9------|----|-------9------|----|------9------|------9------|
D|----10---10---|----|----10---10---|----|----10---10---|----|---10---10---|---10---10---|
A|-12-----------|-x2-|-11-----------|-x2-|-10-----------|-x2-|-8-----------|-7-----------| x6
E|--------------|----|--------------|----|--------------|----|-------------|-------------|

(Guitar 2)
e|------------------------------------|
B|--------------12-10------8~---------|
G|-9-----9-------------7h9-----5h7----|
D|---9~----9/7---------------------5~-|
A|------------------------------------| x2
E|------------------------------------|

e|-12~--12~--15~---12~---10~-|
B|-12~--13~--13~---13~---13~-|
G|-12~-------12~---12~-------|
D|---------------------------|
A|---------------------------| x4
E|---------------------------|

[Chorus]
(Guitar 1)
e|-----------------------------------------|
B|-----------------------------------------|
G|-5----4----2-----------------------------|
D|-5-x8-4-x8-2-x8-5----3----2----5----3----|
A|-3----2----0----5-x8-3-x8-2-x8-5-x8-3-x8-| x2
E|----------------3----1----0----3----1----|

(Guitar 2)
e|-8----10----12----10----15----12----12----10----|
B|-8-x8-12-x8-10-x8-10-x8-13-x8-12-x8-13-x8-12-x8-|
G|------------------------------------------------|
D|------------------------------------------------|
A|------------------------------------------------|
E|------------------------------------------------|

[Bridge]
(Guitar 1)
e|-0------0------0------0-----0-----|
B|-0------0------0------0-----0-----|
G|-9------9------9------9-----9-----|
D|-10-x16-10-x16-10-x16-10-x8-10-x8-|
A|-12-----11-----10-----8-----7-----| x4
E|----------------------------------|

(Guitar 2)
e|-15-12-------15-12-------15-12----|-12----------12----------12-------|
B|-------13p12-------13p12-------13-|----13----------13----------13----|
G|----------------------------------|-------14p12-------14p12-------14-|
D|----------------------------------|----------------------------------|
A|----------------------------------|----------------------------------| x4
E|----------------------------------|----------------------------------|

(Guitar 1)
e|-0-----0-----0-----0-----0-----|
B|-0-----0-----0-----0-----0-----|
G|-9-----9-----9-----9-----9-----|
D|-10-x4-10-x4-10-x4-10-x4-10-x4-|
A|-12----11----10----8-----7-----| x4
E|-------------------------------|

(Guitar 2)
e|-12-------|----|-10-------|----|-8-----|----|-----------------------------|
B|----13----|----|----12----|----|---8---|----|----------------------9----9-|
G|-------14-|----|-------13-|----|-----9-|----|------9-10-------9-10---10---|
D|----------|----|----------|----|-------|----|---10---------10-------------|
A|----------|-x5-|----------|-x5-|-------|-x5-|-8----------7----------------| x2
E|----------|----|----------|----|-------|----|-----------------------------|

(Guitar 1)
e|----|
B|----|
G|-2~-|
D|-2~-|
A|-0~-| x4
E|----|

(Guitar 2)
e|-4-5---12----8-7-|
B|-----------------|
G|-----------------|
D|-----------------|
A|-----------------|
E|-----------------|

[Chorus]
(Guitar 1)
e|-----------------------------------------|
B|-----------------------------------------|
G|-5----4----2-----------------------------|
D|-5-x8-4-x8-2-x8-5----3----2----5----3----|
A|-3----2----0----5-x8-3-x8-2-x8-5-x8-3-x8-| x2
E|----------------3----1----0----3----1----|

(Guitar 2)
e|-8----10----12----10----15----12----12----10----|
B|-8-x8-12-x8-10-x8-10-x8-13-x8-12-x8-13-x8-12-x8-|
G|------------------------------------------------|
D|------------------------------------------------|
A|------------------------------------------------|
E|------------------------------------------------|

[Bridge]
(Guitar 1)
e|-0------0------0------0-----0-----|
B|-0------0------0------0-----0-----|
G|-9------9------9------9-----9-----|
D|-10-x16-10-x16-10-x16-10-x8-10-x8-|
A|-12-----11-----10-----8-----7-----| x4
E|----------------------------------|

(Guitar 2)
e|-15-12-------15-12-------15-12----|-12----------12----------12-------|
B|-------13p12-------13p12-------13-|----13----------13----------13----|
G|----------------------------------|-------14p12-------14p12-------14-|
D|----------------------------------|----------------------------------|
A|----------------------------------|----------------------------------| x4
E|----------------------------------|----------------------------------|

(Guitar 1)
e|-0-----0-----0-----0-----0-----|
B|-0-----0-----0-----0-----0-----|
G|-9-----9-----9-----9-----9-----|
D|-10-x4-10-x4-10-x4-10-x4-10-x4-|
A|-12----11----10----8-----7-----| x4
E|-------------------------------|

(Guitar 2)
e|-12-------|----|-10-------|----|-8-----|----|-----------------------------|
B|----13----|----|----12----|----|---8---|----|----------------------9----9-|
G|-------14-|----|-------13-|----|-----9-|----|------9-10-------9-10---10---|
D|----------|----|----------|----|-------|----|---10---------10-------------|
A|----------|-x5-|----------|-x5-|-------|-x5-|-8----------7----------------| x2
E|----------|----|----------|----|-------|----|-----------------------------|

(Guitar 1)
e|----|
B|----|
G|-2~-|
D|-2~-|
A|-0~-| x4
E|----|

(Guitar 2)
e|-4-5---12----8-7-|
B|-----------------|
G|-----------------|
D|-----------------|
A|-----------------|
E|-----------------|

11. Song: Play Crack The Sky

D#G#C#F#A#D#

[Intro]
e|-x---3~-|
B|-x---3~-|
G|-x---0~-|
D|-x---0~-|
A|-x---2~-|
E|-x---3~-|

[Verse]
(Guitar 1)
e|-3----3----|----|-0----|
B|-3----3----|----|-0----|
G|-0----0----|----|-0----|
D|-0----2-x6-|----|-2----|
A|-2-x6-3----|-x3-|-2-x6-| x5
E|-3---------|----|-0----|

[Pre-Chorus]
e|-0----|
B|-0----|
G|-0----|
D|-2-x6-|
A|-0----|
E|------|

[Chorus]
(Guitar 1)
e|-0----3----0----0----|-0----3----0----|
B|-1----3----0----0----|-1----3----0----|
G|-0----0----0----0----|-0----0----0----|
D|-2-x8-0----2----2----|-2-x8-0----2----|
A|-3----2-x8-2-x8-0-x8-|-3----2-x8-2-x8-|
E|------3----0----0----|------3----0----|

[Verse]
(Guitar 1)
e|-3----3----|----|-0----|
B|-3----3----|----|-0----|
G|-0----0----|----|-0----|
D|-0----2-x6-|----|-2----|
A|-2-x6-3----|-x3-|-2-x6-| x5
E|-3---------|----|-0----|

[Chorus]
(Guitar 1)
e|-0----3----0----0----|-0----3----0----|
B|-1----3----0----0----|-1----3----0----|
G|-0----0----0----0----|-0----0----0----|
D|-2-x8-0----2----2----|-2-x8-0----2----|
A|-3----2-x8-2-x8-0-x8-|-3----2-x8-2-x8-|
E|------3----0----0----|------3----0----|

[Bridge]
e|-----------|----|-0----|
B|-----0---0-|----|-0----|
G|-------0---|----|-0----|
D|-2-2-------|----|-2-x4-|
A|-----------|-x4-|-0----|
E|-----------|----|------|

[Outro]
e|-3-----3-----|----|-0-----3-----|
B|-3-----3-----|----|-0-----3-----|
G|-0-----0-----|----|-0-----0-----|
D|-0-----2-x16-|----|-2-----2-x16-|
A|-2-x16-3-----|-x2-|-2-x16-3-----|
E|-3-----------|----|-0-----------|

[End On]
e|-3~-|
B|-3~-|
G|-0~-|
D|-0~-|
A|-2~-|
E|-3~-|


************************************

| x  Dead note
| ~  Vibrato
| h  Hammer-on
| /  Slide up
| p  Pull-off
| *  Natural harmonic

************************************
Suggest correction
comments
print report bad tab
4 comments total. Showing first comments.
0 reply
Wakefield22 59 Oct 28, 2014 11:11 PM

Great tab man. A lot of work and it looks great. I don't mean to nit pick but I think Play Crack The Sky's chords are a little off. This is how I play it.

Verse1

|-3----3----|----|-3----|
|-3----3----|----|-3----|
|-0----0----|----|-0----|
|-0----2-x6-|----|-2----|
|-2-x6-3----|-x3-|-2-x6-| x5
|-3---------|----|-0----|

Pre Chorus
|-3----|
|-3----|
|-0----|
|-2-x6-|
|-0----|
|------|

0 reply
Taikwonjew 42 Dec 22, 2015 11:34 AM

Maybe for the verse following the bridge on "Okay I Believe You", instead of
|-------------------|
|-------------------|
|-------------------|
|-2----5----3----2~-|
|-2-x8-5-x4-3-x3-2~-| x6
|-0----3----1----0~-|
it's
|---------------------|
|---------------------|
|---------------------|
|-9----12----10----2~-|
|-9-x8-12-x4-10-x3-2~-| x6
|-7----10----8-----0~-|
Just a thought

0 reply
Taikwonjew 42 Dec 22, 2015 11:39 AM

Maybe for the verse following the bridge on "Okay I Believe You", instead of
|-------------------|
|-------------------|
|-------------------|
|-2----5----3----2~-|
|-2-x8-5-x4-3-x3-2~-| x6
|-0----3----1----0~-|
its
|---------------------|
|---------------------|
|-9----12-------------|
|-9----12----10----2~-|
|-7-x8-10-x4-10-x3-2~-| x6
|------------8-----0~-|
Just a thought :)

guest
You may want to rate the tab now too:
select rating
Wanna post a correction for this tab? Suggest correction