Oops, an error
Loading. Please wait.

Flying At Tree Level bass

version 2
version 2

Whole song

Interactive

91 views 6 this week
no commentswrite comment
1 2 3 4 5
1 last vote to show rating
add to favorites
×
Save as Personal and add changes to this tab that will be seen only by you. Learn more ›
×
You can save this tab as Personal to edit and correct it or add notes. All changes will be seen only by you. Learn more »
launch autoscroll
font size
0
reset
guitar tuner
edit
Autoscroll
slow
fast
+/-
esc
set tempo
stop
Brand New - Flying At Tree Level

Tabbed by: Ashy (XxThreeCheersxX)
E-mail: burdickash@gmail.com

Tuning: Half Step Down

Intro (muted guitar strokes)

Verse 
Gb|------------------------------------------------------|
Db|------------------------------------------------------|
Ab|---------------------------3--3--3--3-3---------------| x 3
Eb|-5--5--5--5-5-3--3--3--3-3---------------1--1--1--1-1-|

Gb|------------------------------------------------------|
Db|------------------------------------------------------|
Ab|---------------------------3--3--3--3-3---------------| 
Eb|-5--5--5--5-5-3--3--3--3-3---------------1--1--1--1---|

Pre-Chorus ("please keep the reporters at bay")
Gb|------------------------------------------------------|
Db|------------------------------------------------------|
Ab|---------------------------3--3--3--3-3---------------| x 4
Eb|-5--5--5--5-5-3--3--3--3-3---------------1--1--1--1-1-|

Chorus 
Gb|-------------------------|
Db|-------------------------|
Ab|-------------------------|
Eb|-(5)~--------------------|

(come in after "we can make it work like this, like this, like this")
Gb|-------------------------|
Db|-------------------------|
Ab|-------------------------|
Eb|-0--0--0--0--0--0--0--0--|

Verse

Pre-Chorus

Chorus II
Gb|-------------------------|
Db|-------------------------|
Ab|-------------------------|
Eb|-(5)~--------------------|

(come in after "we can make it work like this, like this, like this")
Gb|----------------------------|
Db|----------------------------|
Ab|----------------------------|
Eb|-12\0--0--0--0--0--0--0--0--|

Bridge ("I see my baby, she's starry-eyed")
Gb|-------------------------------------------------|
Db|-------------------------------------------------|
Ab|-------------3--3--5-/7--------------3--3--5-/7--|
Eb|-5--5--5--5--------------5--5--5--5--------------|
                                                             x 3
Gb|-------------------------------------------------|
Db|-------------------------------------------------|
Ab|-3--3--3--3--7--7--5--3--------------------------|
Eb|-------------------------3--3--3--3--1--1--1--0--|

Gb|-------------------------------------------------|
Db|-------------------------------------------------|
Ab|-------------3--3--5-/7--------------3--3--5-/7--|
Eb|-5--5--5--5--------------5--5--5--5--------------|

Gb|-------------------------------------------------------------------------|
Db|-------------------------------------------------------------------------|
Ab|-------------------------------------------------------------------------|
Eb|-3--3--3--3--3--3--3--3--2--2--2--2--2--2--2--2--0--0--0--0--0--0--0--0--|

Final Chorus
Gb|-------------------------|
Db|-------------------------|
Ab|-------------------------|
Eb|-(5)~--------------------|

Gb|------------------------------------------------------|
Db|------------------------------------------------------|
Ab|---------------------------3--3--3--3-3---------------| x 6
Eb|-5--5--5--5-5-3--3--3--3-3---------------1--1--1--1-1-|

Gb|-----------------------------------|
Db|-----------------------------------|
Ab|-----------------------------------|
Eb|-10--0--0--0--0--0--0--0--0--------|

Happy playing!

| /  slide up
| \  slide down
| h  hammer-on
| p  pull-off
| ~  vibrato
| +  harmonic
| x  Mute note
===============================================================================

            
            
Suggest correction
Creating personal tab
Creating personal tab
You can edit any tab online and save it as your Personal.

You can edit, replace or remove any tab part or add personal notes – all changes will be seen only by you.

Personal tabs can be accessed anytime from any device, even offline.
Learn more »
Give kudos to tab author, rate the tab!
1 2 3 4 5
comments
print report bad tab
guest
You may want to rate the tab now too:
select rating
Wanna post a correction for this tab? Suggest correction