Oops, an error
Loading. Please wait.

Gasoline tab

version 3
version 3

Whole song

12,225 views 45 this week
2 commentsread comments
1 2 3 4 5
x 4
add to favorites
×
Save as Personal and add changes to this tab that will be seen only by you. Learn more ›
×
You can save this tab as Personal to edit and correct it or add notes. All changes will be seen only by you. Learn more »
launch autoscroll
font size
0
reset
how to read this tab
guitar tuner
edit
Autoscroll
slow
fast
+/-
esc
set tempo
stop
Author
Band: Brand New
Song: Gasoline

Brilliant song, saw it live full band the other day so i'm pretty sure I saw Jesse Play this


Intro/Verse:

(I'm afraid you're going to have to figure out a strumming pattern because is 
weird (Mostly Downstrokes))

e|-------------|
B|-------------|
G|-------------|
D|----9---4--5-|
A|-2--10--5--7-|
E|-0--0---0--0-|

Chorus:

e-----------|
b-----------|
g-0---------|
d-2--5--4---|
a-0--5--3---|
e----3--1---|



Lyrics:

She tried to put a fire out, she used gasoline
When the congregation gathered round,
It’s screaming ‘it wasn’t me’.

So there’s a sickness that is going round, no one’s got a vaccine.
Think we're treading holy water, I think it’s time we all come clean.

I swear it’s like trying to catch a ghost,
Like I’m dying to hold smoke.
It feels like I’m trying to catch a ghost,
It’s like I’m dying to hold smoke.

When the army had to hold the line, you were nowhere near the front;
Before the kids could tell the dog goodbye, you were loading up your gun.
I want to know what is the great divide,
I want to know what I’ve become.
You’re thinking no one else is lonesome, you think that you’re the only one.

It feels like I’m jumping towards a train,
It feels like I’m jumping towards a train.

We all try to fake a way!

It feels like I’m jumping towards a train,
It feels like I’m jumping towards a train.

We all try to fake a way! 

            
            
Suggest correction
Creating personal tab
Creating personal tab
You can edit any tab online and save it as your Personal.

You can edit, replace or remove any tab part or add personal notes – all changes will be seen only by you.

Personal tabs can be accessed anytime from any device, even offline.
Learn more »
comments
print report bad tab
2 comments total.
0 reply
mxerscott 1,126 Jan 16, 2013 08:22 PM

At 1:22 another part comes in that continues the rest of the song.
Goes something like this.

e|----------------------------------------|
b|----------------------------------------|
g|----------------------------------------|
d|----------------------------------------|
a|--7-7-7-7---5-5-5-5---4-4-4-4---2-2-2-2-|
e|0---------0---------0---------0---------|

sometimes i like to play it like this too
e|----------------------------------------|
b|----------------------------------------|
g|----------------------------------------|
d|--5-5-5-5---4-4-4-4---2-2-2-2---2-2-2-2-|
a|--7-7-7-7---5-5-5-5---4-4-4-4---2-2-2-2-|
e|0---------0---------0---------0---------|
[\tab]

0 reply
mxerscott 1,126 Jan 17, 2013 03:57 PM

Also this part at 1:51

e|------------------|
b|------------------|
g|------------------|
d|------------------|
a|---2/7~-----2/8-7-|
e|-0--------0-------|

guest
You may want to rate the tab now too:
select rating
Wanna post a correction for this tab? Suggest correction