Oops, an error
Loading. Please wait.

Guernica bass

version 1
version 1

Whole song

Interactive

6,221 views 12 this week
1 commentread comment
1 2 3 4 5
x 5
add to favorites
×
Save as Personal and add changes to this tab that will be seen only by you. Learn more ›
×
You can save this tab as Personal to edit and correct it or add notes. All changes will be seen only by you. Learn more »
launch autoscroll
font size
0
reset
guitar tuner
edit
Autoscroll
slow
fast
+/-
esc
set tempo
stop
Brand New – Guernica
Tabbed by Adam (bequickorbedead)

Tuning – Half Step Down (Eb, Ab, Db, Gb)

An awesome song, I’m pretty sure its 100% correct.

Intro
Gb|------------------------------------------------|
Db|---------------77-555-4h5p4---------------------|
Ab|-777777777-5-5-----------------------0h33333333-|
Eb|----------------------------333333333-----------|x2

Verse
Gb|------------------------------------------------|
Db|---------------77-555-4h5p4---------------------|
Ab|-777777777-5-5-----------------------0h33333333-|
Eb|----------------------------333333333-----------|x2

Pre Chorus
Gb|------------------------------------|
Db|------------------------------------|
Ab|-7~-------5~--------7~----------7~--|
Eb|-------------------------7~---------|x2

Chorus
Gb|-----------------------------------------------------------------------|
Db|-----------------------------------------------------------------------|
Ab|----------55555555------------------------------------7777777777777777-|
Eb|-77777777----------3333333333333333\77777777/55555555------------------|x2

Verse
Gb|-----------------------------------------------|
Db|--------------77-555-4h5p4---------------------|
Ab|-777777777-55-----------------------0h33333333-|
Eb|---------------------------333333333-----------|x2

Pre Chorus
Gb|-----------------------------------|
Db|-----------------------------------|
Ab|-7~------5~--------7~----------7~--|
Eb|------------------------7~---------|x2


Chorus
Gb|-----------------------------------------------------------------------|
Db|-----------------------------------------------------------------------|
Ab|----------55555555------------------------------------7777777777777777-|
Eb|-77777777----------3333333333333333\77777777/55555555------------------|x2

Bridge
Gb|-----------------------------------------------------------------------------|
Db|-----------------------------------------------------------------------------|
Ab|-77777777\55555555/22222222\33333333\77777777/55555555-----------333---------|
Eb|-------------------------------------------------------55555555------333--7~-|

Chorus/Outro
Gb|-----------------------------------------------------------------------|
Db|-----------------------------------------------------------------------|
Ab|----------55555555------------------------------------7777777777777777-|
Eb|-77777777----------3333333333333333\77777777/55555555------------------|x2
Suggest correction
Creating personal tab
Creating personal tab
You can edit any tab online and save it as your Personal.

You can edit, replace or remove any tab part or add personal notes – all changes will be seen only by you.

Personal tabs can be accessed anytime from any device, even offline.
Learn more »
comments
print report bad tab
1 comment total.
+2 reply
ReverendHeat 10 Sep 09, 2010 09:07 AM

Nice tab, good work. One thing that I noticed is that Garrett plays the pre-chorus a little differently on the album version of the song. Here's how it goes:

Pre Chorus ("Is this the way a toy feels...")
Gb|----------------------|
Db|----------------------|
Ab|-2~---5~--7\2~--------|
Eb|----------------0~----|x2

guest
You may want to rate the tab now too:
select rating
Wanna post a correction for this tab? Suggest correction