Oops, an error
Loading. Please wait.

Handcuffs intro tab

version 1
version 1

Intro

Whole song

Interactive

9,196 views 21 this week
5 commentsread comments
1 2 3 4 5
x 7
add to favorites
×
Save as Personal and add changes to this tab that will be seen only by you. Learn more ›
×
You can save this tab as Personal to edit and correct it or add notes. All changes will be seen only by you. Learn more »
launch autoscroll
font size
0
reset
how to read this tab
guitar tuner
edit
Autoscroll
slow
fast
+/-
esc
set tempo
stop
Difficulty
Handcuffs Intro
Handcuffs by: Brand New
Tabbed by: jonbucholz
Tuning: Standard (EADGBe)

E-------------------------------------------|
B-----0-------0-------0-------0-------------|
G---4---4---4---4---7---7---7---0-----------|  x3
D-5-------7-------9-------9-----------------|
A-------------------------------------------|
E-------------------------------------------|

E-------------------------------------------|
B-----0-------0-------0-------0-------------|
G---4---4---4---4---4---4---4---------------|
D-4-------4-------5-------5-----------------|
A-------------------------------------------|
E-------------------------------------------|
Suggest correction
Creating personal tab
Creating personal tab
You can edit any tab online and save it as your Personal.

You can edit, replace or remove any tab part or add personal notes – all changes will be seen only by you.

Personal tabs can be accessed anytime from any device, even offline.
Learn more »
comments
print report bad tab
5 comments total. Showing first comments.
0 reply
austinarcadium 40 Sep 12, 2007 02:16 PM

this tad is 100% wrong. it sounds nothing like handcuffs. when it says 'tabbed by: whatever his name is', yet, it is under 'unregistered' the guy who tabbed it logged in as himself and gave himself 5 stars. dont waste your time on this tab.
it is completly wrong.

0 reply
austinarcadium 40 Sep 12, 2007 02:23 PM

i take that back. a teeny tiny bit is right.

+1 reply
Dapper Dan 185 Feb 19, 2008 05:51 PM

the correct answer was this

E------------------------------------------|
B-----0-------0------0-------0-------------|
G---4---4---6------7---7---7---7-----------| x3
D-5-------7------9-------9-----------------|
A------------------------------------------|
E------------------------------------------|

E-------------------------------------------|
B-----0-------0-------0-------0-------------|
G---2---2---2-------4---4---4---------------|
D-4-------4-------5-------5-----------------|
A-------------------------------------------|
E-------------------------------------------|

guest
Wanna post a correction for this tab? Suggest correction