Oops, an error
Loading. Please wait.

Handcuffs tab

version 1
version 1

Whole song

Interactive

29,334 views 54 this week
4 commentsread comments
1 2 3 4 5
x 10
add to favorites
×
Save as Personal and add changes to this tab that will be seen only by you. Learn more ›
×
You can save this tab as Personal to edit and correct it or add notes. All changes will be seen only by you. Learn more »
launch autoscroll
font size
0
reset
how to read this tab
guitar tuner
edit
Autoscroll
slow
fast
+/-
esc
set tempo
stop
Intro/verse:
[Guitar 1]
e|------------------------2-------2----------------------------------------|
B|------3--------5------3---3---3--3---------0----0--------3-------3-------|
G|----4---4----6--6---4-------4------------2--2--2--2----4---4---4---4-----|
D|--5--------7------------------------x3--4-----4------5-------5-----------|
A|-------------------------------------------------------------------------|
E|-------------------------------------------------------------------------|

[Guitar 2]
e|------------------------------------2-3----|
B|------------------------------------2-3----|
G|--4-4-4-4--6-6-6-6-7-7-7-7-7--------2-4----|
D|--5-5-5-5--7-7-7-7-9-9-9-9-9----x3--4-5----|
A|------------------------------------4-5----|
E|------------------------------------2-3----|

Chorus/Bridge: (I'm not sure about this, it's hard to hear)
e|--3-3-3-3-3------------------------------------|
B|--3-3-3-3-3--3-3-3-3-3-3--3-3-3-3-3-3-3-3-3----|
G|--0-0-0-0-0--2-2-2-2-2-2--x-x-x-x-x-x-2-2-2----|
D|--0-0-0-0-0--0-0-0-0-0-0--2-2-2-2-2-2-0-0-2----|
A|--2-2-2-2-2--x-x-x-x-x-x--2-2-2-2-2-2-x-x-0----|
E|--3-3-3-3-3--2-2-2-2-2-2--0-0-0-0-0-0-2-3------|

            
            
Suggest correction
Creating personal tab
Creating personal tab
You can edit any tab online and save it as your Personal.

You can edit, replace or remove any tab part or add personal notes – all changes will be seen only by you.

Personal tabs can be accessed anytime from any device, even offline.
Learn more »
comments
print report bad tab
4 comments total. Showing first comments.
0 reply
iamtheguitarpro 81 Nov 25, 2006 02:51 PM

good, but the main riff is a tiny bit off. the 3rd part is just
e|------------------|
B|--3---3---3---3---|
G|4---4---4---4-----|
D|------------------|
A|------------------|
E|------------------|

0 reply
tygo 10 Dec 01, 2006 07:36 PM

the intro isn't right. The three combos you have are 5 4 3, then 7,6,5 and 4,3,2. If you listen to the song, the third notes in these combos are all the same note. I don't know what that note is but its not a progression from 3 to 5 then to 2. It's more like just an open b string to replace these three notes. Either way the intro in this tab is wrong.

+3 reply
Dapper Dan 185 Dec 25, 2006 06:26 PM

it's this. i'm working on a tab of the full album and i haven't finished this song or a few others

e|---------------------------------------------------------
B|------0-------0-------0-------0--------------------------
G|----4---4---6---6---7---7---7---7------------------------
D|--5-------7-------9-------9------------------------------
A|-----------------------------------------------x3--------
E|---------------------------------------------------------

e|---------------------------------------------------------
B|------0-------0-------0-------0--------------------------
G|----2---2---2---2---4---4---4---4------------------------
D|--4-------4-------5-------5------------------------------
A|---------------------------------------------------------
E|---------------------------------------------------------

thats the intro riff and the verse follows the same progression with some variation in picking/strumming

guest
You may want to rate the tab now too:
select rating
Wanna post a correction for this tab? Suggest correction