Oops, an error
Loading. Please wait.
We have Chord Pro version of Jesus Christ.
It's the closest thing you can get to the original song and it has interactive parts. Check out the tab »
×

Jesus Christ Tab

version 1
version 1

Solo

Whole song

Interactive

17,346 views 6 this week
4 commentsread comments
1 2 3 4 5
x 6
add to favorites
launch autoscroll
font size
0
reset
how to read this tab
guitar tuner
Autoscroll
slow
fast
+/-
esc
set tempo
stop
Author
Difficulty
intermediate
-------------------------------------------------------------------------------
                             Jesus Christ - Brand New
-------------------------------------------------------------------------------
Tabbed by:Tim Pintar
Email:trp333@ksu.edu

Tuning:Standard

THIS IS THE MOST COMPLETE VERSION OF THIS SONG. LISTEN TO THE SONG. KEEP YOUR EARS OPEN.


This is pretty much the majority of the song.

1st Guitarist- ( mute the 8th fret and strum for the distorted intro. )
e|-8---|
B|-8---|
G|-8---|3x
D|-8---|
A|-8---|
E|-8---|


1st Guitarist
e|---5---5---5---5---5---5---5---5--|
B|--3-3-3-3-3-3-3-3-3-3-3-3-3-3-3-3-|(You play this through out the entire
G|-4---4---4---4---2---2---2---2----| song) 25x
D|----------------------------------|
A|----------------------------------|
E|----------------------------------|

2nd guitarist- 1st Solo
e|---------------------------------------------------------------------------|
B|-5-3-5/7---2-3-5-5-3-5/7---2-3-5-5-3-5/7---2-3-5-5-3-5/7-------------------|
G|--------4-2-------------4-2-------------4-2-------------4-2-0--------------|
D|-------------------------------------------------------------4-4-----------|
A|---------------------------------------------------------------------------|
E|---------------------------------------------------------------------------|

2nd Guitarist- ...the nights hard to get through, and i...
e|-16/17\16/17\16/17\16--13/14\13/14\13/14\13---------------------------------|
B|---------------------------------------------------------------------------|
G|---------------------------------------------------------------------------|2x 
D|---------------------------------------------------------------------------|
A|---------------------------------------------------------------------------|
E|---------------------------------------------------------------------------|

2nd Guitarist- ...well Jesus Christ I'm alone again so what did you do...
e|---------------------------------------------------------------------------|
B|---------------------------------------------------------------------------|
G|-4-7-4-7-9-7---2-7-2-7-9-7-------------------------------------------------|2x
D|---------------------------------------------------------------------------|
A|---------------------------------------------------------------------------|
E|---------------------------------------------------------------------------|

2nd Guitarist-...do i divide and pull apart...
e|-16/17\16/17\16/17\16--14/15\14/15\14/15\14--------------------------------|
B|---------------------------------------------------------------------------|
G|---------------------------------------------------------------------------|3x
D|---------------------------------------------------------------------------|
A|---------------------------------------------------------------------------|
E|---------------------------------------------------------------------------|

2nd Guitar- IMMEDIATELY AFTER- ...in sight of land...
e|-17h19--16/17\16/17\16/17\16--14/15\14/15\14/15\14-------------------------|
B|-15------------------------------------------------------------------------|
G|---------------------------------------------------------------------------|
D|---------------------------------------------------------------------------|
A|---------------------------------------------------------------------------|
E|---------------------------------------------------------------------------|

2nd Guitar- 2nd Solo
e|---------------------------------------------------------------------------|
B|-5-5-5-5-3-5/7---2-3-5-5-3-5/7---2-3-5-5-3-5/7---2-3-5-5-3-5/7-------------|
G|--------------4-2-------------4-2-------------4-2-------------4-2-0--------|
D|-------------------------------------------------------------------4-4-----|
A|---------------------------------------------------------------------------|
E|---------------------------------------------------------------------------|

e|---------------------------------------------------------------------------|
B|---------------------------------------------------------------------------|
G|-4-4-4-2-0---------4-4-4-2-0-4-4-4-2-0---------2-2-------------------------|
D|----------4/5\4-2-4---------4----------4/5\4-2-4---2-4-2-4/5---------------|
A|---------------------------------------------------------------------------|
E|---------------------------------------------------------------------------|

2nd Guitar- 3rd Solo
e|---------------------------------------------------------------------------|
B|-5-3-5/7---2-3-5-5-3-5/7---2-3-5-5-3-5/7---2-3-5-5-3-5/7-------------------|
G|--------4-2-------------4-2-------------4-2-------------4-2-0--------------|
D|-------------------------------------------------------------4-4/5\4-------|
A|---------------------------------------------------------------------------|
E|---------------------------------------------------------------------------|

e|---------------------------------------------------------------------------|
B|---------------------------------------------------------------------------|
G|-4-4-4-2-0---------4-4-4-2-0-4-4-4-2-0-------------------------------------|
D|----------4/5\4-2-4---------4----------4/5\4-2-4-2-0-----------------------|
A|----------------------------------------------------2----------------------|
E|---------------------------------------------------------------------------|


| /  slide up
| \  slide down
| h  hammer-on
| p  pull-off
| ~  vibrato
| +  harmonic
| x  Mute note
===============================================================================
Suggest correction
comments
print report bad tab
4 comments total. Showing first comments.
+1 reply
trp333@ksu.edu 47 Mar 10, 2008 03:30 PM

if you have no idea what the hell is going on let me know and i'll try to help.

0 reply
Side Effect 10 Mar 22, 2008 01:52 PM

This is correct for the most part. You're missing some harmonics here and there and the solos aren't the real way Jesse plays them but they also work. :)

0 reply
Side Effect 10 Mar 22, 2008 01:55 PM

Oh and the 1st guitars part is also wrong.

guest
You may want to rate the tab now too:
select rating
Wanna post a correction for this tab? Suggest correction