Oops, an error
Loading. Please wait.
We have Chord Pro version of Jesus Christ.
It's the closest thing you can get to the original song and it has interactive parts. Check out the tab »
×
30,915 views 1 this week
10 commentsread comments
1 2 3 4 5
x 18
add to favorites
×
Save as Personal and add changes to this tab that will be seen only by you. Learn more ›
×
You can save this tab as Personal to edit and correct it or add notes. All changes will be seen only by you. Learn more »
launch autoscroll
font size
0
reset
how to read this tab
guitar tuner
edit
Autoscroll
slow
fast
+/-
esc
set tempo
stop
Brand New
The Devil and God Are Raging inside of me
Jesus

e|---------------------------------|
B|------10--------------10---------|
G|---7-----7--(x4)----7----7--(x4)-|
D|-9----------------7--------------|
A|---------------------------------|
E|---------------------------------|

(00:16)
e|-------------------------------------------------|
B|-------------------------------------------------|
G|-9-7-9h11--------7s9-(x3)----7s9-7-9h11----------|
D|----------9s7-11-----------------------9s7-------|
A|------------------------------------------10-9-9-|
E|-------------------------------------------------|

This rhythm continues throughout whole song:
e|---------------------------------|
B|------10--------------10---------|
G|---7-----7--(x4)----7----7--(x4)-|
D|-9----------------7--------------|
A|---------------------------------|
E|---------------------------------|


Anddd that's basicly it...except for this part which isn't much different but i'll put 
on here anyway:

(02:25)
e|-----------------------------------------------------|
B|-----------------------------------------------------|
G|-9-9-9-9-7-9h11-------7s9-(x3)---7s9-7-9h11----------|
D|---------------9s7-11----------------------9s7-------|
A|----------------------------------------------10-9-9-|
E|-----------------------------------------------------|

e|-------------------------------------------------------------------------------|
B|-------------------------------------------------------------------------------|
G|-------------------------------------------------------------------------------|
D|9-9-9-9-7----------------9-9-9-9-7-------9-9-9-9-7---------------7-------------|
A|----------10-9h10p9-7s9------------10-9------------10-9h10p9-7s9---7h9p7-10----|
E|-------------------------------------------------------------------------------|


Alright so uh this song is kick-a i must say...and i'm pretty sure this tab is 
please?? seeeee girls can tab songs too. and e-mail me if u have any questions. thanks :)

fusepunk9@hotmail.com
Suggest correction
Creating personal tab
Creating personal tab
You can edit any tab online and save it as your Personal.

You can edit, replace or remove any tab part or add personal notes – all changes will be seen only by you.

Personal tabs can be accessed anytime from any device, even offline.
Learn more »
comments
print report bad tab
10 comments total. Showing first comments.
-1 reply
mitchrosko 190 Nov 28, 2006 08:40 AM

this is exactly the same as the other ones, just different strings slid up a bit higher...

0 reply
Whatley2212 120 Jan 19, 2007 08:51 PM

Actually mitchrosko, this is the way they really play it.

+1 reply
Pericoloso 51 Jan 20, 2007 09:17 AM

Great job. This one is right in terms of where on the guitar it is played, but I think they are both missing something in these parts...anyway here's how I play it, try it out:

(00:16)
e|-------------------------------------------------|
B|-------------------------------------------------|
G|-9-7-9s11-------6-7s9-9---7-9s11-------6-7s9-9---|
D|----------9s7-7------------------9s7-7-----------|
A|-------------------------------------------------|
E|-------------------------------------------------|

e|-------------------------------------------------|
B|-------------------------------------------------|
G|-7-9s11-------6-7s9-9--7-9s11--------------------|
D|--------9s7-7-----------------9s7-7s5-5s4-4b-----|
A|-------------------------------------------------|
E|-------------------------------------------------|

and

(02:25)
e|-------------------------------------------------------|
B|-------------------------------------------------------|
G|-9-9-9-9-7-9s11-------6-7s9-9---7-9s11-------6-7s9-9---|
D|----------------9s7-7------------------9s7-7-----------|
A|-------------------------------------------------------|
E|-------------------------------------------------------|

e|-------------------------------------------------|
B|-------------------------------------------------|
G|-7-9s11-------6-7s9-9--7-9s11--------------------|
D|--------9s7-7-----------------9s7-7s5-5s4-4------|
A|-------------------------------------------------|
E|-------------------------------------------------|

e|-------------------------------------------------|
B|-------------------------------------------------|
G|-------------------------------------------------|
D|-9-9-9-9s7-7s5-5-4h5p4-2-4--9-9-9-9s7-7s5-5-4----|
A|-------------------------------------------------|
E|-------------------------------------------------|

e|-------------------------------------------------|
B|-------------------------------------------------|
G|-------------------------------------------------|
D|-9-9-9s7-7s5-5-4h5p4-2-4--7-7s2-2h4p2------------|
A|-------------------------------------------------|
E|-------------------------------------------------|

guest
Wanna post a correction for this tab? Suggest correction