Oops, an error
Loading. Please wait.

Jude Law And A Semester Abroad Tab

version 1
version 1

Whole song

Interactive

15,231 views 15 this week
2 commentsread comments
1 2 3 4 5
worth learning
x 8
add to favorites
launch autoscroll
font size
0
reset
how to read this tab
guitar tuner
Tab Pro tools
  • play this tab
  • loop segment
  • change instrument
  • show fretboard
  • metronome
×
Best way to learn
"Jude Law And A Semester Abroad"
Autoscroll
slow
fast
+/-
esc
set tempo
stop
Contributor
XxXxXxXxXxXxXxXxXxXxXxXxXxXxXxXxXxXxXxXxXxXxXxXxXxXxXxXxXxXxXxXxXxXxXxXxXxXxXxX
         BRAND NEW - JUDE LAW AND A SEMESTER ABROAD (RHYTHM GUITAR)
XxXxXxXxXxXxXxXxXxXxXxXxXxXxXxXxXxXxXxXxXxXxXxXxXxXxXxXxXxXxXxXxXxXxXxXxXxXxXxX

By:Mikey G
E-mail:Americana1987@hotmail.com

Tuning:half step down

Palm Mute: x (below)

Verse: 
e|---------------------------------------------------------------------------|
B|---------------------------------------------------------------------------|
G|-6666666444444444----------------------------------------------------------|
D|-66666664444444446666666666666666------------------------------------------|
A|-44444444222222226666666666666666------------------------------------------|
E|-----------------4444444444444444------------------------------------------|
   xxxxxxxxxxxxxxxxxxxxxxxxxxxxxxxx

Bridge "i've got a plan.."
e|---------------------------------------------------------------------------|
B|---------------------------------------------------------------------------|
G|-6-66-6-66-6-6---------------66-66-6-66-6-6--------------------------------|
D|-6-66-6-66-6-6-7-77-7-77-7-7-66-66-6-66-6-6-7-77-7-77-7-7------------------|
A|-4-44-4-44-4-4-7-77-7-77-7-7-44-44-4-44-4-4-7-77-7-77-7-7------------------|
E|---------------5-55-5-55-5-5----------------5-55-5-55-5-5------------------|
   x xx x xx x x

Pre-chorus 
e|---------------------------------------------------------------------------|
B|---------------------------------------------------------------------------|
G|-44444444444444442222222222222222------------------------------------------|
D|-44444444444444442222222222222222------------------------------------------|
A|-22222222222222220000000000000000------------------------------------------|
E|---------------------------------------------------------------------------|

Chorus "tell all the english boys you meet.."
e|---------------------------------------------------------------------------|
B|---------------------------------------------------------------------------|
G|-9-9x-9-9x-66666666666666664444444444444444--------------------------------|
D|-9-9x-9-9x-66666666666666664444444444444444--------------------------------|
A|-7-7x-6-6x-44444444444444442222222222222222--------------------------------|
E|---------------------------------------------------------------------------|

e|---------------------------------------------------------------------------|
B|---------------------------------------------------------------------------|
G|-9999999999999999999999999999999966666666666666664444444444444444----------|
D|-9999999999999999999999999999999966666666666666664444444444444444----------|
A|-7777777777777777666666666666666644444444444444442222222222222222----------|
E|---------------------------------------------------------------------------|

ENDING CHORUS
e|---------------------------------------------------------------------------|
B|---------------------------------------------------------------------------|
G|-99999999999999999999999999999999----------------6666666644444444----------|
D|-9999999999999999999999999999999977777777777777776666666644444444----------|
A|-7777777777777777666666666666666677777777777777774444444422222222----------|
E|-000000000000000000000000000000005555555555555555--------------------------|

OUTRO
e|---------------------------------------------------------------------------|
B|---------------------------------------------------------------------------|
G|-4-6-9---------------------------------------------------------------------|
D|-4-6-9-let it ring---------------------------------------------------------|
A|-2-4-7---------------------------------------------------------------------|
E|-----0---------------------------------------------------------------------|

that's about it, enjoy.

XxXxXxXxXxXxXxXxXxXxXxXxXxXxXxXxXxXxXxXxXxXxXxXxXxXxXxXxXxXxXxXxXxXxXxXxXxXxXxX
comments
print report bad tab
2 comments total.
0 reply
iamtheguitarpro wrote on March 27 2006, 06:20 pm

What the guy has here is good, but what about the rest of the song?

0 reply
xcory2190 wrote on November 14 2006, 03:37 pm

yeah you kinda skipped the whole intro riff

I want to post or [tab]
guest
You may want to rate the tab now too:
select rating
Please do not post tabs as comments. Select "correction" instead!