Oops, an error
Loading. Please wait.

Jude Law And A Semester Abroad bass

version 2
version 2

Whole song

Interactive

1,403 views 3 this week
no commentswrite comment
1 2 3 4 5
x 3
add to favorites
×
Save as Personal and add changes to this tab that will be seen only by you. Learn more ›
×
You can save this tab as Personal to edit and correct it or add notes. All changes will be seen only by you. Learn more »
launch autoscroll
font size
0
reset
guitar tuner
edit
Autoscroll
slow
fast
+/-
esc
set tempo
stop
Band: Brand New
Album: Your Favorite Weapon
Song: Jude Law and a Semester Abroad
Track: 2

Tabbed by: safetyinnumbers(Dany)
Tuning: Half-step down Eb,Ab,Db,Gb or D#,G#,C#,F#

Listen for the rythem and when to come in.
This should be 100% correct.
Enjoy.

 /  slide up
 \  slide down
 h  hammer-on
 p  pull-off
 ~  vibrato
 x  mute

Intro/verse (Come in around 00:10)
"He owes me one last wish."
Gb------------------------------------------------------------------|
Db------------------------------------------------------------------|
Ab-8/4-4-4444-2-2-222---------------4-4-4444-2-2-222----------------| X 1
Eb-------------------4-4-444-4-4-444----------------4-4-444-4-4-444-|

Pre-chorus
"But I got a plan. Drink for forty days and forty nights."
Gb------------------------------------------------------------|
Db------------------------------------------------------------|
Ab-4-4-4444-4-0-0-0000-0-4-4-4444-0-0-0000-222222222-00000000-| X 1
Eb------------------------------------------------------------|

Chorus
"Tell all the English boys you meet."
Gb-----------------------------------------------------------------------|
Db-----------------------------------------------------------------------|
Ab-77-66-4444444444-222222222/7-7-7-7777-6-6-6-6666-4444444444-222222222-|  X 1
Eb-----------------------------------------------------------------------|

Verse
No singing
Gb-------------------------------------------|
Db-------------------------------------------|
Ab--------------------4-4-444-2-2-222--------| X 1
Eb-10/4-4-44444-4-4444---------------4(Rest)-|

"And even if her plane crashes tonight."
Gb--------------------------------|
Db--------------------------------|
Ab-4-4-444-2-2-222----------------| X 4
Eb----------------4-4-444-4-4-444-|

Pre-chorus
"It's 8:45, the weather gets better by the hour."
Gb------------------------------------------------------------|
Db------------------------------------------------------------|
Ab-4-4-4444-4-0-0-0000-0-4-4-4444-0-0-0000-222222222-00000000-| X 1
Eb------------------------------------------------------------|

Chorus
"Tell all the English boys you meet."
Gb--------------------------------------------------------------------------|
Db--------------------------------------------------------------------------|
Ab-77-66-4444444444-222222222/7-7-7-7777-6-6-6-6666-4444444444-222222222/7~-| X 1
Eb--------------------------------------------------------------------------|

Bridge
"who would do anything you say."
Gb-----------------------------------------|
Db-----------------------------------------|
Ab-7~-7~-6~-44-4-44-4-44-4-44-4-2-22-22-22-| X 1
Eb-----------------------------------------|

"Never gonna get it right."
Gb--------------------------------------------|
Db--------------------------------------------|
Ab-/7~-6~-44-44-4-44-4-44-4-44-2-22-2-22-2-22-| X 1
Eb--------------------------------------------|

"Never gonna get it right."
Gb-------------------------|
Db-------------------------|
Ab-7~-6~-444444444-2(rest)-| X 1
Eb-------------------------|

"No more songs about you."
Gb------------------------------------------|
Db------------------------------------------|
Ab-7777777-66666666--------44444444-2222222-| X 3
Eb-----------------55555555-----------------|

Outro
"I am done, you are, you are gone."
Gb-------------------------------------------|
Db-------------------------------------------|
Ab-7777777-66666666--------44-4-4-2-2-2-2/7~-|
Eb-----------------55555555------------------|

Any questions or comments e=mail me at safetydate@aol.com.

            
            
Suggest correction
Creating personal tab
Creating personal tab
You can edit any tab online and save it as your Personal.

You can edit, replace or remove any tab part or add personal notes – all changes will be seen only by you.

Personal tabs can be accessed anytime from any device, even offline.
Learn more »
Give kudos to tab author, rate the tab!
1 2 3 4 5
comments
print report bad tab
guest
You may want to rate the tab now too:
select rating
Wanna post a correction for this tab? Suggest correction