Oops, an error
Loading. Please wait.

Jude Law And A Semester Abroad tab

version 2
version 2

Whole song

Interactive

72,606 views 63 this week
19 commentsread comments
1 2 3 4 5
x 25
add to favorites
×
Save as Personal and add changes to this tab that will be seen only by you. Learn more ›
×
You can save this tab as Personal to edit and correct it or add notes. All changes will be seen only by you. Learn more »
launch autoscroll
font size
0
reset
how to read this tab
guitar tuner
edit
Autoscroll
slow
fast
+/-
esc
set tempo
stop
Author
Unregistered
JUDE LAW AND A SEMESTER ABROAD
                            As recorded by Brand New
                   (From the 2001 Album YOUR FAVORITE WEAPON)

Words and Music by Brand New
Transcribed by Chance Strickland

NOTE:  All tabbing props to Chance Strickland.  I just submitt'd it. Rocking band,
awesome song.  This is an extremely accurate tab.  Thanks, and enjoy!

        G#m7/C#                B5                   G#m              F#add11/G#
      x 4 6 4 7 x          7 9 9 x x x          4 2 6 4 x x          4 2 4 3 x x

          C#5                  A5                   E5                  E5/D#
      x 4 6 6 x x          5 7 7 x x x          x 7 9 9 x x          x 6 9 9 x x

          G#5                 B/D#                F#5/D#
      4 6 6 x x x          x 6 9 8 x x          x 6 4 6 x x

Gtr I (Eb Ab Db Gb Bb Eb) - 'distortion 1'
Gtr II (Eb Ab Db Gb Bb Eb) - 'distortion 2'

[Verse]
    Moderately Fast Rock Q=180
    G#m7/C#           B5                  G#m       F#adG#m/G#      B5
   4/4
    Gtr I
    E E E E E E E E   +E  E E E E E E E   E E E E E E E E   E E E E E E E E  4x
e||------------------|-------------------|-----------------|------------------||
B||o---------7-------|-------------------|-----------------|-----------------o||
G||------4-----4-----|-------------------|-----4-----3---4-|-----4---4-4-4-4--||
D||----6---------6---|-----------9-------|-----6-----4---6-|-----6---4-4-4-4--||
A||o-4-----4---------|-------7-----9-----|-----2-----2---2-|-----2---2-2-2-2-o||
E||----------------7-|-(7)-7-7-7-----7-4-|-4-4-4-4-4-4-4-4-|-4-4-4-4----------||


   C#5                             A5
   Gtr I
   E E E E E E E E   H..       E   +E  E E E E E E E    H..       E
e|-----------------|-------------|-------------------|---------------|
B|---------5-4-----|-------------|-------------------|---------------|
G|-----4---------4-|-------------|-------4---6-4---4-|---------------|
D|-----------------|-------------|-------------------|---------------|
A|-4-4---4-----4---|-------------|-------------------|------------4--|
E|-----------------|-----------5-|-(5)-5---5-----5---|---------------|
|
 | Gtr II
 | E E Q   E E E E   H..       E   +E  E Q   E E E E   +H..       E
e|-----------------|-------------|-------------------|---------------|
B|-----------------|-------------|-------------------|---------------|
G|-----6-------6-6-|-------------|-------------------|---------------|
D|-6---6---6-6-6-6-|-------------|-------7-------7-7-|-(7)--------6--|
A|-4-4-4---4-4-4-4-|-----------7-|-(7)---7---7-7-7-7-|-(7)--------4--|
E|-----------------|-----------5-|-(5)-5-5---5-5-5-5-|-(5)-----------|


   C#5                               A5
   +E  E E E E E E E   H..       E   +E  E E E E E E E   W
e|-------------------|-------------|-------------------|------|
B|-----------5-4-----|-------------|-------------------|------|
G|-------4---------4-|-------------|-------4---6-4---4-|------|
D|-------------------|-------------|-------------------|------|
A|-(4)-4---4-----4---|-------------|-------------------|------|
E|-------------------|-----------5-|-(5)-5---5-----5---|------|
|
 | +E  E Q   E E E E   H..       E   +E  E Q   E E E E   W
e|-------------------|-------------|-------------------|------|
B|-------------------|-------------|-------------------|------|
G|-------6-------6-6-|-------------|-------------------|------|
D|-(6)---6---6-6-6-6-|-------------|-------7-------7-7-|------|
A|-(4)-4-4---4-4-4-4-|-----------7-|-(7)---7---7-7-7-7-|------|
E|-------------------|-----------5-|-(5)-5-5---5-5-5-5-|------|


 [Pre-Chorus]
   B5                                 A5
   Q  Q  E E E E   +E  E Q  E E E E   Q  Q  E E E E   +E  E Q  E E E E
e|---------------|------------------|---------------|-------------------|
B|---------------|------------------|---------------|-------------------|
G|-4--4--4-4-4-4-|-(4)-4-4--4-4-4-4-|-2--2--2-2-2-2-|-(2)-2-2--2-2-2-2--|
D|-4--4--4-4-4-4-|-(4)-4-4--4-4-4-4-|-2--2--2-2-2-2-|-(2)-2-2--2-2-2-2--|
A|-2--2--2-2-2-2-|-(2)-2-2--2-2-2-2-|-0--0--0-0-0-0-|-(0)-0-0--0-0-0-0--|
E|---------------|------------------|---------------|-------------------|
|
 | W               +W                 W               +W
e|---------------|------------------|---------------|-------------------|
B|---------------|------------------|---------------|-------------------|
G|-4-------------|-(4)--------------|-2-------------|-(2)---------------|
D|-4-------------|-(4)--------------|-2-------------|-(2)---------------|
A|-2-------------|-(2)--------------|-0-------------|-(0)---------------|
E|---------------|------------------|---------------|-------------------|


 [Chorus]
   E5                      E5/D#
   Gtrs I, II
   Q  Q  H      W          Q  Q  H      W
e|------------|----------|------------|------|
B|------------|----------|------------|------|
G|-9--9-------|----------|-9--9-------|------|
D|-9--9-------|----------|-9--9-------|------|
A|-7--7-------|----------|-6--6-------|------|
E|------------|----------|------------|------|


   C#5                                B5
   Q  Q  E E E E   +E  E Q  E E E E   Q  Q  E E E E   +E  E Q  E E E E
e|---------------|------------------|---------------|-------------------|
B|---------------|------------------|---------------|-------------------|
G|-6--6--6-6-6-6-|-(6)-6-6--6-6-6-6-|-4--4--4-4-4-4-|-(4)-4-4--4-4-4-4--|
D|-6--6--6-6-6-6-|-(6)-6-6--6-6-6-6-|-4--4--4-4-4-4-|-(4)-4-4--4-4-4-4--|
A|-4--4--4-4-4-4-|-(4)-4-4--4-4-4-4-|-2--2--2-2-2-2-|-(2)-2-2--2-2-2-2--|
E|---------------|------------------|---------------|-------------------|


   E5                                    E5/D#
   Gtr I
   Q   Q   E E E E   +E  E Q   E E E E   Q   Q   E E E E   +E  E Q   E E E E
e|-----------------|-------------------|-----------------|--------------------|
B|-----------------|-------------------|-----------------|--------------------|
G|-9---9---9-9-9-9-|-(9)-9-9---9-9-9-9-|-9---9---9-9-9-9-|-(9)-9-9---9-9-9-9--|
D|-9---9---9-9-9-9-|-(9)-9-9---9-9-9-9-|-9---9---9-9-9-9-|-(9)-9-9---9-9-9-9--|
A|-7---7---7-7-7-7-|-(7)-7-7---7-7-7-7-|-6---6---6-6-6-6-|-(6)-6-6---6-6-6-6--|
E|-----------------|-------------------|-----------------|--------------------|
|
 | Gtr II
 | E E E E E E E E    E  E E E E E E E   E E E E E E E E    E  E E E E E E E
e|-----------------|-------------------|-----------------|--------------------|
B|-----------------|-------------------|-----------------|--------------------|
G|-9-9-9-9-9-9-9-9-|--9--9-9-9-9-8-8-8-|-9-9-9-9-9-9-9-9-|--9--9-9-9-9-8-8-8--|
D|-----------------|-------------------|-----------------|--------------------|
A|-7-7-7-7-7-7-7-7-|--7--7-7-7-7-6-6-6-|-7-7-7-7-7-7-7-7-|--7--7-7-7-7-6-6-6--|
E|-----------------|-------------------|-----------------|--------------------|


   C#5                                   B5
   Q   Q   E E E E   +E  E Q   E E E E   Q   Q   E E E E   +E  E Q   E E E E
e|-----------------|-------------------|-----------------|--------------------|
B|-----------------|-------------------|-----------------|--------------------|
G|-6---6---6-6-6-6-|-(6)-6-6---6-6-6-6-|-4---4---4-4-4-4-|-(4)-4-4---4-4-4-4--|
D|-6---6---6-6-6-6-|-(6)-6-6---6-6-6-6-|-4---4---4-4-4-4-|-(4)-4-4---4-4-4-4--|
A|-4---4---4-4-4-4-|-(4)-4-4---4-4-4-4-|-2---2---2-2-2-2-|-(2)-2-2---2-2-2-2--|
E|-----------------|-------------------|-----------------|--------------------|
|
 | E E E E E E E E    E  E E E E E E E   E E E E E E E E    E  E E E E E E E
e|-----------------|-------------------|-----------------|--------------------|
B|-----------------|-------------------|-----------------|--------------------|
G|-9-9-9-9-9-9-9-9-|--9--9-9-9-9-8-8-8-|-9-9-9-9-9-9-9-9-|--9--9-9-9-9-8-8-8--|
D|-----------------|-------------------|-----------------|--------------------|
A|-7-7-7-7-7-7-7-7-|--7--7-7-7-7-6-6-6-|-7-7-7-7-7-7-7-7-|--7--7-7-7-7-6-6-6--|
E|-----------------|-------------------|-----------------|--------------------|


  [Pre-Verse]
   G#m7/C#           B5              F#adG#m/G#    F#adG#m/G#      B5
   Gtr I
   E E E E E E E E   +E  E E E E E E E   E E E E E E E E   E E E E E E E E
e|-----------------|-------------------|-----------------|------------------|
B|---------7-------|-------------------|-----------------|------------------|
G|-----4-----4-----|-----------------3-|-----4-----3---4-|-----4---4-4-4-4--|
D|---6---------6---|-----------9-----4-|-----6-----4---6-|-----6---4-4-4-4--|
A|-4-----4---------|-------7-----9---2-|-----2-----2---2-|-----2---2-2-2-2--|
E|---------------7-|-(7)-7-7-7-----7-4-|-4-4-4-4-4-4-4-4-|-4-4-4-4----------|


   C#5               B5                  G#5
   E E E E E E E E   +E  E E E E E E E   E H..         W
e|-----------------|-------------------|-------------|------|
B|---------7-------|-------------------|-------------|------|
G|-----4-----4-----|-------------------|-------------|------|
D|-------------6---|-----------9-------|-6-----------|------|
A|-4-4---4---------|-------7-----9-----|-6-----------|------|
E|---------------7-|-(7)-7-7-7-----7-4-|-4-----------|------|


 [Verse]
     G#m7/C#           B5                  G#m       F#adG#m/G#      B5
     Gtr I
     E E E E E E E E   +E  E E E E E E E   E E E E E E E E   E E E E E E E E  4x
e||------------------|-------------------|-----------------|------------------||
B||o---------7-------|-------------------|-----------------|-----------------o||
G||------4-----4-----|-------------------|-----4-----3---4-|-----4---4-4-4-4--||
D||----6---------6---|-----------9-------|-----6-----4---6-|-----6---4-4-4-4--||
A||o-4-----4---------|-------7-----9-----|-----2-----2---2-|-----2---2-2-2-2-o||
E||----------------7-|-(7)-7-7-7-----7-4-|-4-4-4-4-4-4-4-4-|-4-4-4-4----------||


     C#5                             B5
     E E E E E E E E   H..       E   +E  E E E E E E E   W
e||------------------|-------------|-------------------|-------||
B||o---------5-4-----|-------------|-------------------|------o||
G||------4---------4-|-------------|-------4---6-4---4-|-------||
D||------------------|-------------|-------------------|-------||
A||o-4-4---4-----4---|-------------|-------------------|------o||
E||------------------|-----------5-|-(5)-5---5-----5---|-------||
|
 |   Gtr II
 |   E E Q   E E E E   H..       E   +E  E Q   E E E E   W
e||------------------|-------------|-------------------|-------||
B||o-----------------|-------------|-------------------|------o||
G||------6-------6-6-|-------------|-------------------|-------||
D||--6---6---6-6-6-6-|-------------|-------7-------7-7-|-------||
A||o-4-4-4---4-4-4-4-|-----------7-|-(7)---7---7-7-7-7-|------o||
E||------------------|-----------5-|-(5)-5-5---5-5-5-5-|-------||


 [Pre-Chorus]
   B5                                 A5
   Q  Q  E E E E   +E  E Q  E E E E   Q  Q  E E E E   +E  E Q  E E E E
e|---------------|------------------|---------------|-------------------|
B|---------------|------------------|---------------|-------------------|
G|-4--4--4-4-4-4-|-(4)-4-4--4-4-4-4-|-2--2--2-2-2-2-|-(2)-2-2--2-2-2-2--|
D|-4--4--4-4-4-4-|-(4)-4-4--4-4-4-4-|-2--2--2-2-2-2-|-(2)-2-2--2-2-2-2--|
A|-2--2--2-2-2-2-|-(2)-2-2--2-2-2-2-|-0--0--0-0-0-0-|-(0)-0-0--0-0-0-0--|
E|---------------|------------------|---------------|-------------------|
|
 | W               +W                 W               +W
e|---------------|------------------|---------------|-------------------|
B|---------------|------------------|---------------|-------------------|
G|-4-------------|-(4)--------------|-2-------------|-(2)---------------|
D|-4-------------|-(4)--------------|-2-------------|-(2)---------------|
A|-2-------------|-(2)--------------|-0-------------|-(0)---------------|
E|---------------|------------------|---------------|-------------------|


 [Chorus]
   E5                      E5/D#
   Gtrs I, II
   Q  Q  H      W          Q  Q  H      W
e|------------|----------|------------|------|
B|------------|----------|------------|------|
G|-9--9-------|----------|-9--9-------|------|
D|-9--9-------|----------|-9--9-------|------|
A|-7--7-------|----------|-6--6-------|------|
E|------------|----------|------------|------|


   C#5                                B5
   Q  Q  E E E E   +E  E Q  E E E E   Q  Q  E E E E   +E  E Q  E E E E
e|---------------|------------------|---------------|-------------------|
B|---------------|------------------|---------------|-------------------|
G|-6--6--6-6-6-6-|-(6)-6-6--6-6-6-6-|-4--4--4-4-4-4-|-(4)-4-4--4-4-4-4--|
D|-6--6--6-6-6-6-|-(6)-6-6--6-6-6-6-|-4--4--4-4-4-4-|-(4)-4-4--4-4-4-4--|
A|-4--4--4-4-4-4-|-(4)-4-4--4-4-4-4-|-2--2--2-2-2-2-|-(2)-2-2--2-2-2-2--|
E|---------------|------------------|---------------|-------------------|


   E5                                    E5/D#
   Gtr I
   Q   Q   E E E E   +E  E Q   E E E E   Q   Q   E E E E   +E  E Q   E E E E
e|-----------------|-------------------|-----------------|--------------------|
B|-----------------|-------------------|-----------------|--------------------|
G|-9---9---9-9-9-9-|-(9)-9-9---9-9-9-9-|-9---9---9-9-9-9-|-(9)-9-9---9-9-9-9--|
D|-9---9---9-9-9-9-|-(9)-9-9---9-9-9-9-|-9---9---9-9-9-9-|-(9)-9-9---9-9-9-9--|
A|-7---7---7-7-7-7-|-(7)-7-7---7-7-7-7-|-6---6---6-6-6-6-|-(6)-6-6---6-6-6-6--|
E|-----------------|-------------------|-----------------|--------------------|
|
 | Gtr II
 | E E E E E E E E    E  E E E E E E E   E E E E E E E E    E  E E E E E E E
e|-----------------|-------------------|-----------------|--------------------|
B|-----------------|-------------------|-----------------|--------------------|
G|-9-9-9-9-9-9-9-9-|--9--9-9-9-9-8-8-8-|-9-9-9-9-9-9-9-9-|--9--9-9-9-9-8-8-8--|
D|-----------------|-------------------|-----------------|--------------------|
A|-7-7-7-7-7-7-7-7-|--7--7-7-7-7-6-6-6-|-7-7-7-7-7-7-7-7-|--7--7-7-7-7-6-6-6--|
E|-----------------|-------------------|-----------------|--------------------|


   C#5                                   B5
   Q   Q   E E E E   +E  E Q   E E E E   Q   Q   E E E E   +E  E Q   E E E E
e|-----------------|-------------------|-----------------|--------------------|
B|-----------------|-------------------|-----------------|--------------------|
G|-6---6---6-6-6-6-|-(6)-6-6---6-6-6-6-|-4---4---4-4-4-4-|-(4)-4-4---4-4-4-4--|
D|-6---6---6-6-6-6-|-(6)-6-6---6-6-6-6-|-4---4---4-4-4-4-|-(4)-4-4---4-4-4-4--|
A|-4---4---4-4-4-4-|-(4)-4-4---4-4-4-4-|-2---2---2-2-2-2-|-(2)-2-2---2-2-2-2--|
E|-----------------|-------------------|-----------------|--------------------|
|
 | E E E E E E E E    E  E E E E E E E   E E E E E E E E    E  E E E E E E E
e|-----------------|-------------------|-----------------|--------------------|
B|-----------------|-------------------|-----------------|--------------------|
G|-9-9-9-9-9-9-9-9-|--9--9-9-9-9-8-8-8-|-9-9-9-9-9-9-9-9-|--9--9-9-9-9-8-8-8--|
D|-----------------|-------------------|-----------------|--------------------|
A|-7-7-7-7-7-7-7-7-|--7--7-7-7-7-6-6-6-|-7-7-7-7-7-7-7-7-|--7--7-7-7-7-6-6-6--|
E|-----------------|-------------------|-----------------|--------------------|


 [Interlude]
   E5
   W          +W            W           +W
e|----------|------------|------------|--------|
B|----------|------------|------------|--------|
G|-9--------|-(9)--------|--9---------|-(9)----|
D|-9--------|-(9)--------|--9---------|-(9)----|
A|-7--------|-(7)--------|--7---------|-(7)----|
E|----------|------------|------------|--------|
|
 | W          +W           +W           +W
e|----------|------------|------------|--------|
B|----------|------------|------------|--------|
G|-9--------|-(9)--------|-(9)--------|-(9)----|
D|-9--------|-(9)--------|-(9)--------|-(9)----|
A|-7--------|-(7)--------|-(7)--------|-(7)----|
E|----------|------------|------------|--------|


   E5                                    B/D#
   W                 +W                  W                 +W
e|-----------------|-------------------|-----------------|--------------------|
B|-----------------|-------------------|-----------------|--------------------|
G|-9---------------|-(9)---------------|-8---------------|-(8)----------------|
D|-9---------------|-(9)---------------|-9---------------|-(9)----------------|
A|-7---------------|-(7)---------------|-6---------------|-(6)----------------|
E|-----------------|-------------------|-----------------|--------------------|
|
 | PM|     PM|        PM-|     PM|       PM|     PM|        PM-|     PM|
 | E E E E E E E E    E  E E E E E E E   E E E E E E E E    E  E E E E E E E
e|-----------------|-------------------|-----------------|--------------------|
B|-----4h5-----7p5-|---------------5p4-|-----4h5-----7p5-|-------4h5-----5p4--|
G|-----------------|-------8h9---------|-----------------|--------------------|
D|-----------------|-------------------|-----------------|--------------------|
A|-7-7-----7-7-----|--7--7-----7-7-----|-6-6-----6-6-----|--6--6-----6-6------|
E|-----------------|-------------------|-----------------|--------------------|


   C#5                             B5
   PM|    PM|      PM|    PM|      PM|    PM|      PM|    PM|
   E E Q  E E Q    E E Q  E E Q    E E Q  E E Q    E E Q  E E Q
e|---------------|---------------|---------------|----------------|
B|---------------|---------------|---------------|----------------|
G|-----6------6--|-----6------6--|-----4------4--|-----4------4---|
D|-x-x-6--x-x-x--|-x-x-6--x-x-6--|-x-x-4--x-x-4--|-x-x-4--x-x-4---|
A|-4-4-4--4-4-4--|-4-4-4--4-4-4--|-2-2-2--2-2-2--|-2-2-2--2-2-2---|
E|---------------|---------------|---------------|----------------|
|
 | PM|    PM|      PM|    PM|      PM|    PM|      PM|    PM|
 | E E Q  E E Q    E E Q  E E Q    E E Q  E E Q    E E Q  E E Q
e|---------------|---------------|---------------|----------------|
B|---------------|---------------|---------------|----------------|
G|-----4------4--|-----4------4--|-----4------4--|-----4------4---|
D|-x-x-6--x-x-6--|-x-x-6--x-x-6--|-x-x-4--x-x-4--|-x-x-4--x-x-4---|
A|-4-4-4--4-4-4--|-4-4-4--4-4-4--|-2-2-2--2-2-2--|-2-2-2--2-2-2---|
E|---------------|---------------|---------------|----------------|


   E5                                    B/D#
   W                 +W                  W                 +W
e|-----------------|-------------------|-----------------|--------------------|
B|-----------------|-------------------|-----------------|--------------------|
G|-9---------------|-(9)---------------|-8---------------|-(8)----------------|
D|-9---------------|-(9)---------------|-9---------------|-(9)----------------|
A|-7---------------|-(7)---------------|-6---------------|-(6)----------------|
E|-----------------|-------------------|-----------------|--------------------|
|
 | E E E E E E E E    E  E E E E E E E   E E E E E E E E    E  E E E E E E E
e|-----------------|-------------------|-----------------|--------------------|
B|-----4h5-----7p5-|---------------5p4-|-----4h5-----7p5-|-------4h5-----5p4--|
G|-----------------|-------8h9---------|-----------------|--------------------|
D|-----------------|-------------------|-----------------|--------------------|
A|-7-7-----7-7-----|--7--7-----7-7-----|-6-6-----6-6-----|--6--6-----6-6------|
E|-----------------|-------------------|-----------------|--------------------|


   C#5                             B5
   PM|    PM|      PM|    PM|      PM|    PM|      PM|    PM|
   E E Q  E E Q    E E Q  E E Q    E E Q  E E Q    E E Q  E E Q
e|---------------|---------------|---------------|----------------|
B|---------------|---------------|---------------|----------------|
G|-----6------6--|-----6------6--|-----4------4--|-----4------4---|
D|-x-x-6--x-x-x--|-x-x-6--x-x-6--|-x-x-4--x-x-4--|-x-x-4--x-x-4---|
A|-4-4-4--4-4-4--|-4-4-4--4-4-4--|-2-2-2--2-2-2--|-2-2-2--2-2-2---|
E|---------------|---------------|---------------|----------------|
|
 | PM|    PM|      PM|    PM|      PM|    PM|      PM|    PM|
 | E E Q  E E Q    E E Q  E E Q    E E Q  E E Q    E E Q  E E Q
e|---------------|---------------|---------------|----------------|
B|---------------|---------------|---------------|----------------|
G|-----4------4--|-----4------4--|-----4------4--|-----4------4---|
D|-x-x-6--x-x-6--|-x-x-6--x-x-6--|-x-x-4--x-x-4--|-x-x-4--x-x-4---|
A|-4-4-4--4-4-4--|-4-4-4--4-4-4--|-2-2-2--2-2-2--|-2-2-2--2-2-2---|
E|---------------|---------------|---------------|----------------|


   E5                                    B/D#
   W                 +W                  W                 +W
e|-----------------|-------------------|-----------------|--------------------|
B|-----------------|-------------------|-----------------|--------------------|
G|-9---------------|-(9)---------------|-9---------------|-(9)----------------|
D|-9---------------|-(9)---------------|-9---------------|-(9)----------------|
A|-7---------------|-(7)---------------|-6---------------|-(6)----------------|
E|-----------------|-------------------|-----------------|--------------------|
|
 | E E E E E E E E    E  E E E E E E E   E E E E E E E E    E  E E E E E E E
e|-----------------|-------------------|-----------------|--------------------|
B|-----4h5-----7p5-|---------------5p4-|-----4h5-----7p5-|-------4h5-----5p4--|
G|-----------------|-------8h9---------|-----------------|--------------------|
D|-----------------|-------------------|-----------------|--------------------|
A|-7-7-----7-7-----|--7--7-----7-7-----|-6-6-----6-6-----|--6--6-----6-6------|
E|-----------------|-------------------|-----------------|--------------------|


  Breakdown
   C#5                                 B5
   E E E E E E E E   E E E E E E E E   Q  H.        W
e|-----------------|-----------------|------------|------|
B|-----------------|-----------------|------------|------|
G|-6-6-6-6-6-6-6-6-|-6-6-6-6-6-6-6-6-|-4----------|------|
D|-6-6-6-6-6-6-6-6-|-6-6-6-6-6-6-6-6-|-4----------|------|
A|-4-4-4-4-4-4-4-4-|-4-4-4-4-4-4-4-4-|-2----------|------|
E|-----------------|-----------------|------------|------|
|
 | E E E E E E E E   E E E E E E E E   Q  H.        W
e|-----------------|-----------------|------------|------|
B|-----------------|-----------------|------------|------|
G|-4-4-4-4-4-4-4-4-|-4-4-4-4-4-4-4-4-|-4----------|------|
D|-6-6-6-6-6-6-6-6-|-6-6-6-6-6-6-6-6-|-4----------|------|
A|-4-4-4-4-4-4-4-4-|-4-4-4-4-4-4-4-4-|-2----------|------|
E|-----------------|-----------------|------------|------|


    Out-Chorus
     E5                                  E5/D#
     Gtrs I, II
     Q  Q  E E E E   +E  E E E E E E E   Q  Q  E E E E   +E  E E E E E E E
e||----------------|-------------------|---------------|-------------------|
B||o---------------|-------------------|---------------|-------------------|
G||--9--9--9-9-9-9-|-(9)-9-9-9-9-9-9-9-|-8--8--8-8-8-8-|-(8)-8-8-8-8-8-8-8-|
D||--9--9--9-9-9-9-|-(9)-9-9-9-9-9-9-9-|-9--9--9-9-9-9-|-(9)-9-9-9-9-9-9-9-|
A||o-7--7--7-7-7-7-|-(7)-7-7-7-7-7-7-7-|-6--6--6-6-6-6-|-(6)-6-6-6-6-6-6-6-|
E||----------------|-------------------|---------------|-------------------|


   A5                                  C#5
   Gtr I
   Q  Q  E E E E   +E  E E E E E E E   Q  Q  E E E E
e|---------------|-------------------|---------------|
B|---------------|-------------------|---------------|
G|-2--2--2-2-2-2-|-(2)-2-2-2-2-2-2-2-|-6--6--6-6-6-4-|
D|-2--2--2-2-2-2-|-(2)-2-2-2-2-2-2-2-|-6--6--6-6-6-4-|
A|-0--0--0-0-0-0-|-(0)-0-0-0-0-0-0-0-|-4--4--4-4-4-2-|
E|---------------|-------------------|---------------|
|
 | Gtr II
 | Q  Q  E E E E   +E  E E E E E E E   Q  Q  E E E E
e|---------------|-------------------|---------------|
B|---------------|-------------------|---------------|
G|-2--2--2-2-2-2-|-(2)-2-2-2-2-2-2-2-|-6--6--6-6-6-4-|
D|-2--2--2-2-2-2-|-(2)-2-2-2-2-2-2-2-|-6--6--6-6-6-4-|
A|-0--0--0-0-0-0-|-(0)-0-0-0-0-0-0-0-|-4--4--4-4-4-2-|
E|---------------|-------------------|---------------|


  1.,2.,3.              4.
   B5                    B5        F#5E5#
   +E  E E E E E E E  4x E E E E E q  E
e|--------------------||-----------------|
B|-------------------o||-----------------|
G|-(4)-4-4-4-4-4-4-4--||-4-4-4-4-4-6--9--|
D|-(4)-4-4-4-4-4-4-4--||-4-4-4-4-4-4--9--|
A|-(2)-2-2-2-2-2-2-2-o||-2-2-2-2-2-6--7--|
E|--------------------||--------------0--|
|
 | +E  E E E E E E E  4x E E E E E q  E
e|--------------------||-----------------|
B|-------------------o||-----------------|
G|-(4)-4-4-4-4-4-4-4--||-4-4-4-4-4-6--9--|
D|-(4)-4-4-4-4-4-4-4--||-4-4-4-4-4-4--9--|
A|-(2)-2-2-2-2-2-2-2-o||-2-2-2-2-2-6--7--|
E|--------------------||-----------------|


   E5
   +W           +W           +W           +W
e|------------|------------|------------|--------*|
B|------------|------------|------------|--------*|
G|-(9)--------|-(9)--------|-(9)--------|-(9)----*|
D|-(9)--------|-(9)--------|-(9)--------|-(9)----*|
A|-(7)--------|-(7)--------|-(7)--------|-(7)----*|
E|-(0)--------|-(0)--------|-(0)--------|-(0)----*|
|
 | +W           +W           +W           +W
e|------------|------------|------------|--------*|
B|------------|------------|------------|--------*|
G|-(9)--------|-(9)--------|-(9)--------|-(9)----*|
D|-(9)--------|-(9)--------|-(9)--------|-(9)----*|
A|-(7)--------|-(7)--------|-(7)--------|-(7)----*|
E|------------|------------|------------|--------*|


Duration Legend
---------------
W - whole; H - half; Q - quarter; E - 8th; S - 16th; T - 32nd; X - 64th; a - acciaccatura
+ - note tied to previous; . - note dotted; .. - note double dotted
Uncapitalized letters represent notes that are staccato (1/2 duration)
Irregular groupings are notated above the duration line
Duration letters will always appear directly above the note/fret number it represents the
duration for.  Duration letters with no fret number below them represent rests.  Multi-
bar rests are notated in the form Wxn, where n is the number of bars to rest for.  Low
melody durations appear below the staff

Misc Legend
-----------
 |  - bar
||  - double bar
||o - repeat start
o|| - repeat end
*|  - double bar (ending)
 :  - bar (freetime)
 $  - Segno
 &  - Coda
Tempo markers -  = BPM(8/16=s8/s16), where s8 = swing 8ths, s16 = swing 16ths

************************************

| (n)  Ghost note
| h    Hammer-on
| p    Pull-off
| PM   Palm mute
| x    Dead note 

************************************

            
            
Suggest correction
Creating personal tab
Creating personal tab
You can edit any tab online and save it as your Personal.

You can edit, replace or remove any tab part or add personal notes – all changes will be seen only by you.

Personal tabs can be accessed anytime from any device, even offline.
Learn more »
comments
print report bad tab
19 comments total. Showing first comments. show 1 bad comment
0 reply
varialflip0590 20 Jul 17, 2004 08:00 PM

honestly, your tab is good, but its really confusing and i don't like it, but i do commend you for working hard and getting everything, although i think the intro is wrong, it doesnt look like that when vinny plays it onstage.

0 reply
Iceman86 55 Jul 31, 2005 08:00 PM

amazing tab man just want 2 add lead guitars heavy on phaser aswel, well done

guest
Wanna post a correction for this tab? Suggest correction