Oops, an error
Loading. Please wait.

Limousine tab

version 2
version 2

Whole song

Interactive

40,959 views 150 this week
16 commentsread comments
1 2 3 4 5
x 29
add to favorites
×
Save as Personal and add changes to this tab that will be seen only by you. Learn more ›
×
You can save this tab as Personal to edit and correct it or add notes. All changes will be seen only by you. Learn more »
launch autoscroll
font size
0
reset
how to read this tab
guitar tuner
edit
Autoscroll
slow
fast
+/-
esc
set tempo
stop
[Riff 1]
(the quiet acoustic intro)
e|----------------------------------------------|
b|----3----2----0----0----0----0----3----2------|
g|----4----4----4----6----4----3----4----2------|
d|----4----4----5----7----5----4----4----2------|
a|----2----4----5----7----5----4----2----0------|
e|------------------------3----2----------------|
   (pick up on the odd strumming)

[Riff 2]
(the loud busy part)
e|--------------------------------------------------------|
b|--------------------------------------------------------|
g|--------------4----7---------6----4---------------------|
d|----5----7----4----7----5----6----4----7----5----4------|
a|----5----7----2----5----5----4----2----7----5----4------|
e|----3----5--------------3--------------5----3----2------|
  (hold out the last chord twice as long as the others)

[Riff 3]
(the calm chords)
e|----2----0----3----0----|
b|----3----0----3----0----|
g|----2----2----0----0----|
d|----0----2----0----2----|
a|----0----0----2----2----|
e|--------------3----0----|
  (easy but it sounds nice)

[Riff 4]
(the final riff that is played quietly first and then played loudly)
e|------------------------|
b|----3----2----0---------|
g|----4----2----4----3----|
d|----4----2----5----4----|
a|----2----0----5----4----|
e|--------------3----2----|
  (pick up on the strumming again)

[Outro]
e|----10(x16)----9(x16)----10~~~~12-14-12-10-9 ~~~~14(x16)----12(x16)---------|
b|------------------------12~~~~12-12-12-12-10~~~-----------------------------|
g|-----^rapid picking^----------------------------------^rapid picking^-------|
d|----------------------------------------------------------------------------|
a|----------------------------------------------------------------------------|
e|----------------------------------------------------------------------------|

(then the second guitar comes is after playing Riff 4 and plays this part an octive 
not too hard to figure out.)

e|---------------------------12-10---------------14-12-10-----15-17-18-19---------|
b|----12-12-14b----12-12-12----------12-12-14b-----------14-----------------------|
g|------------------------------------------------------------^rapid picking^-----|
d|--------------------------------------------------------------------------------|
a|--------------------------------------------------------------------------------|
e|--------------------------------------------------------------------------------|
  (figure out the spacing of the notes at the end and thats about it)


************************************

| ~  Vibrato
| b  Bend

************************************
Suggest correction
Creating personal tab
Creating personal tab
You can edit any tab online and save it as your Personal.

You can edit, replace or remove any tab part or add personal notes – all changes will be seen only by you.

Personal tabs can be accessed anytime from any device, even offline.
Learn more »
comments
print report bad tab
16 comments total. Showing first comments.
+1 reply
brandnewforyou 51 Feb 16, 2007 11:19 AM

the last note are actually wrong cause i rushed at the end... but listen to it cause its not too hard to figure out
peace

+1 reply
mitchrosko 190 Feb 22, 2007 04:49 PM

not very good, esp. the beginning

0 reply
kryptonite22 925 Mar 08, 2007 07:40 AM

pretty accurate i reckon

guest
You may want to rate the tab now too:
select rating
Wanna post a correction for this tab? Suggest correction