Oops, an error
Loading. Please wait.

Luca bass

version 1
version 1

Whole song

Interactive

3,262 views 6 this week
no commentswrite comment
1 2 3 4 5
2 more votes to show rating
add to favorites
×
Save as Personal and add changes to this tab that will be seen only by you. Learn more ›
×
You can save this tab as Personal to edit and correct it or add notes. All changes will be seen only by you. Learn more »
launch autoscroll
font size
0
reset
guitar tuner
edit
Autoscroll
slow
fast
+/-
esc
set tempo
stop
Author
Difficulty
-----------------------------

Luca - Brand New
Bass Tab

   Tabbed by Joe "Easy" Mac.

This is my first tab, and I apologize in advance if my tabbing style is a bit strange.
Just understand that I seperated out the measures, and each tab line starts with the

pick-up (the second half of the last beat of the previous measure).  This should be

pretty easy if you have background reading any sort of sheet music, because its tabbed

out by measure and by beat.

Just listen to the song a few times while looking at this and you should understand

it.

Hold out all notes unless otherwise specified.
You might need to do a bit of strumming in certain places (listen to the song).

Bars of 3/4 (with pickup)
Each "-" = 1/2 a beat

Standard tuning.


----------------------------

Bass comes in at [00:42]

Verse: (8 bars, 2x)
G - ------ ------ ------ ------ ------ ------ ------ -----
D 2/7----- -----2/5--553 322--2/7----- -----2/3--332 200--
A - ------ ------ ------ ------ ------ ------ ------ -----
E - ------ ------ ------ ------ ------ ------ ------ -----

Chorus: (6 bars, 1x)
G - ------ ------ ------ ------ ------ ------
D - ------ ------ ------ ------ ------ ----2-
A - 3----- 3-3-0- ------ ---2--/7----- ------
E - ------ ------ 3----- ------ ------ ------

Verse (1x)

Bass cuts out (16 bars of rest)
Come back in at [1:44]

Verse (1x)

Modified Verse: (8 bars, 1x)
G - ------ ------ ------ ------ ------ ------ ------ -----
D 2/7----- -----2/5--553 322--2/7----- 9-----10----- -----
A - ------ ------ ------ ------ ------ ------ ------ -----
E - ------ ------ ------ ------ ------ ------ ------ 3----

Modified Chorus: (6 bars, 1x)
G - ------ ------ ------ 0----- ------ -----
D - ------ ------ ------ ---3-- 2--0-- -----
A - 3----- 3-3-0- ------ ------ ------ 3----
E - ------ ------ 3----- ------ ------ -----

Post-Chorus: (4 bars, 1x)
G - ------ ------ ------ -----
D - ------ ------ ------ --0-2
A - 0----- 2----- 3----- 3----
E - ------ ------ ------ -----

Modified Chorus (1x)

Verse (1x)

Bass cuts out (52 bars of rest)
Come back in at [3:53]

Bridge: (8 bars 4x)
G - ------ ------ ------ ------ ------ ------ ------ -----
D - ------ ------ ------ ------ ------ ------ 5----- --/9-
A - 0----- 3----- ------ ------ 0----- 3----- ------ -----
E - ------ ------ 3----- 1-0-1- ------ ------ ------ -----



Bridge (2x)

Bass cuts out for final guitar chord.

            
            
Suggest correction
Creating personal tab
Creating personal tab
You can edit any tab online and save it as your Personal.

You can edit, replace or remove any tab part or add personal notes – all changes will be seen only by you.

Personal tabs can be accessed anytime from any device, even offline.
Learn more »
Give kudos to tab author, rate the tab!
1 2 3 4 5
comments
print report bad tab
guest
You may want to rate the tab now too:
select rating
Wanna post a correction for this tab? Suggest correction