Oops, an error
Loading. Please wait.

Luca tab

version 4
version 4

Whole song

Interactive

15,714 views 24 this week
3 commentsread comments
1 2 3 4 5
x 5
add to favorites
×
Save as Personal and add changes to this tab that will be seen only by you. Learn more ›
×
You can save this tab as Personal to edit and correct it or add notes. All changes will be seen only by you. Learn more »
launch autoscroll
font size
0
reset
how to read this tab
guitar tuner
edit
Autoscroll
slow
fast
+/-
esc
set tempo
stop
Author
Difficulty
Song Title:  Luca
Artist:      Brand New
Album:       The Devil and God Are Raging Inside Me
Tunning:     Standard (EADGBE)


Intro
e|-----------------------------------------------------|
b|----------1-----------1-----------1-----------1------|
G|------2-----2-----2-----2-----2-----2-----2-----2----|
D|----2---2-------2---2-------2---2-------2---2--------|
A|--0-----------2-----------3-----------2--------------|
E|-----------------------------------------------------|

Chorus 1
e|---------------------------------------------------|
b|----------1-----------1-----------0-----------0----|
G|------0-----0-----0-----0-----0-----0-----0-----0--|
D|----2---2-------2---2-------2---0-------2---0------|
A|--3-----------3------------------------------------|
E|--------------------------0-----------0------------|

Chorus 2
e|---------------------------|
b|----------0-----------0----|
G|------0-----0-----0-----0--|
D|----2---0-------2---0------|
A|---------------------------|
E|--0-----------0------------|

Verse
e|-----------------------------------------------------|
b|----------1-----------1-----------1-----------1------|
G|------2-----2-----2-----2-----2-----2-----2-----2----|
D|----2---2-------2---2-------2---2-------2---2--------|
A|--0-----------2-----------3-----------2--------------|
E|-----------------------------------------------------|

Post Outro
e-------------------------------------------|
b-------------------------------------------|
G---0--------0--------0--------0----0-------|
D--0-0----2---2----2---2----2---2--0-0------|
A--------0-0------0-0------0-0--------------|
E------0--------1--------3-------------0----|

Outro 1
e|-----------------------------------------------|
b|-----------------------------------------------|
G|-----------------------------------------------|
D|--------10*p9-------9*p7-------7*p5---------5--|
A|--7-7-7-------7-7-7------7-7-7------7-7-5-7----|
E|-----------------------------------------------|

Outro 2                                   
e|-----------------------------------------|
b|-----------------------------------------|
G|-----------------------------------------|
D|-----------------------------------------|
A|--------5--------------------------------|
E|--5-7-8---8-7-5-7-3-5-7-3----------------|

e|-----------------------------------------|
b|-----------------------------------------|
G|-----------------------------------------|
D|-----------------------------------------|
A|--------5--------------------------------|
E|--5-7-8---8-7-5-7-3-5-3-0----------------|

e|-----------------------------------------|
b|-----------------------------------------|
G|-----------------------------------------|
D|-----------------------------------------|
A|--------5--------------------------------|
E|--5-7-8---8-7-5-7-3-5-7-3----------------|

e|-----------------------------------------|
b|-----------------------------------------|
G|-----------------------------------------|
D|-----------------------------------------|
A|--------5--------------------------------|
E|--5-7-8---8-7-5-7-3-1-3-0----------------|

e|--0----|
b|--1----|
G|--2----|
D|--2----|
A|--0----|
E|-------|

*=bend
p=pulloff

Notes
  On the Outro where it has 10*p9 etc... bend then note then pull off to the lower note... 
I know it's explained above but there are a few who don't understand. If you have any corrections
please message me at...
AIM: NxFlamed
or
MSN: exodius111@hotmail.com


Song Order:

Intro    x 12 (then play the chorus at 1:04)
chorus 1 x 1
Chorus 2 x 4  (then pause at 1:23 small bass solo there)
Verse    x 4  (starts playing again at 1:44 but softly)
Chorus 1 x 1  (starts at 2:05 then changes to chorus 2)
Chorus 2 x 2  (starts at 2:13)
Chorus 1 x 1  (starts at 2:19 really softly)
chorus 2 x 4  (starts at 2:26 really softly)
chorus 1 x 2  (starts at 2:38 extremely soft)
P.Outro  x 4  (starts at 2:58 when it starts to get louder)
Outro 1  x 8  (starts at 2:55 when he starts screaming)
Outro 2  x 1  (starts at 4:37)


I'm pretty sure thats how it all goes down any question or comments message me or leave them here.

            
            
Suggest correction
Creating personal tab
Creating personal tab
You can edit any tab online and save it as your Personal.

You can edit, replace or remove any tab part or add personal notes – all changes will be seen only by you.

Personal tabs can be accessed anytime from any device, even offline.
Learn more »
comments
print report bad tab
3 comments total.
-1 reply
FalconNFlames 83 Sep 01, 2007 10:36 PM

On the intro and verse instead of playing this its played...
e|-----------------------------------------------------|
b|----------1-----------1-----------1-----------1------|
G|------2-----2-----2-----2-----2-----2-----2-----2----|
D|----2---2-------2---2-------2---2-------2---2--------|
A|--0-----------2-----------3-----------2--------------|
E|-----------------------------------------------------|
Like this...
e|-----------------------------------------------------|
b|----------1-----------1-----------1-----------1------|
G|------2-----2-----2-----2-----2-----2-----2-----2----|
D|----2---2-------0---0-------2---2-------2---2--------|
A|--0-----------2-----------3-----------2--------------|
E|-----------------------------------------------------|
I watched Jesse play it so I know that it's right this time.

+4 reply
ginotech 62 Apr 05, 2011 10:20 AM

I don't know what you saw Jesse do, but the album version is clearly:

e|-----------------------------------------------------|
b|----------1-----------1-----------1-----------1------|
G|------2-----2-----2-----2-----2-----2-----2-----2----|
D|----2---2-------0---0-------0---0-------0---0--------|
A|--0-----------2-----------3-----------2--------------|
E|-----------------------------------------------------|

+1 reply
Nicknick 10 Feb 07, 2013 03:38 AM

e|-----------------------------------------------------|
b|----------1-----------1-----------1-----------1------|
G|------2-----2-----2-----2-----2-----2-----2-----2----|
D|----2---2-------0---0-------0---0-------0---0--------|
A|--0-----------2-----------3-----------2--------------|
E|-----------------------------------------------------|


This is definitely the correct intro for the album version.

guest
You may want to rate the tab now too:
select rating
Wanna post a correction for this tab? Suggest correction