Oops, an error
Loading. Please wait.

Magazines bass

version 2
version 2

Whole song

Interactive

1,423 views 3 this week
no commentswrite comment
1 2 3 4 5
1 last vote to show rating
add to favorites
×
Save as Personal and add changes to this tab that will be seen only by you. Learn more ›
×
You can save this tab as Personal to edit and correct it or add notes. All changes will be seen only by you. Learn more »
launch autoscroll
font size
0
reset
guitar tuner
edit
Autoscroll
slow
fast
+/-
esc
set tempo
stop
Band: Brand New
Album: Your Favorite Weapon
Song: Magazines
Track #: 11
Tabbed by: Safetyinnumbers(Dany)
Tuning: Half step down Eb,Ab,Db,Gb

My first tab...

Verse "Laetitia, you destroy me"
Gb--------------------|
Db--------------------|
Ab------77------77----|
Eb-55-------55--------|
“when you and me could be forever"
Gb----------------------------------------------------------|
Db----------------------------------------------------------|
Ab------------555555555-------------5555555555--------------|
Eb-777777777------------7777777777--------------55--55------|
(After playing
 the D's on the
 Ab string, there's - Db-----7------|
 a hammer of some   - Ab--5h6-5h6---|
 sort. I just play
 this. I know it
 it doens't sound
 right, but it
 works, I guess.)

Chorus “I saw you staring through my TV last night"
Gb---------------------------------------------------|
Db---------------------------------------------------|
Ab-------------77777777---99999999---555555555-------|
Eb-55555555------------------------------------------|
“who's been singing that song on the radio"
Gb----------------------------------------------------|(Play this after you
Db----------------------------------------------------| played the first part
Ab--------77777777-9999999-55555555-777777777---------| of the chorus three
Eb-55-------------------------------------------------| times)

Verse

Chorus

Bridge "Girl, come to me. The only broken-hearted loser"
Gb---------------------------------------------------|(Play the bridge twice
Db---------------------------------------------------| then on the third time
Ab---------------7777777777-9999999999-5555555555----| end on the 9th fret)
Eb-5~--555555555-------------------------------------|

Chorus

Verse

Outro
Gb--------------|(Play right after verse
Db--------------| and watch for rythm)
Ab--------------|
Eb--5-5-5-5-5-\-|

Enjoy.
Any questions or any comments, just e-mail me at safetydate@aol.com

            
            
Suggest correction
Creating personal tab
Creating personal tab
You can edit any tab online and save it as your Personal.

You can edit, replace or remove any tab part or add personal notes – all changes will be seen only by you.

Personal tabs can be accessed anytime from any device, even offline.
Learn more »
Give kudos to tab author, rate the tab!
1 2 3 4 5
comments
print report bad tab
guest
You may want to rate the tab now too:
select rating
Wanna post a correction for this tab? Suggest correction