Oops, an error
Loading. Please wait.

Mix Tape intro tab

version 1
version 1

Intro

Whole song

Interactive

12,537 views 3 this week
1 commentread comment
1 2 3 4 5
x 10
add to favorites
×
Save as Personal and add changes to this tab that will be seen only by you. Learn more ›
×
You can save this tab as Personal to edit and correct it or add notes. All changes will be seen only by you. Learn more »
launch autoscroll
font size
0
reset
how to read this tab
guitar tuner
edit
Autoscroll
slow
fast
+/-
esc
set tempo
stop
Just an easier way to play the intro the other tab is pretty acurrate for the rest of 
song this way you don't have to strain your hand

eb-----------------------------------------------------------------|
Bb------2-----2------2------2-----2-----2-----0-----0--------------|
Gb----2-----2------2------2-----2-----2-----2-----2----------------|
Db--2-----2------2-----2------0-----0-----0-----0------------------|
Ab-----------------------------------------------------------------|
Eb-----------------------------------------------------------------|


                                                     Ocean Howell
Suggest correction
Creating personal tab
Creating personal tab
You can edit any tab online and save it as your Personal.

You can edit, replace or remove any tab part or add personal notes – all changes will be seen only by you.

Personal tabs can be accessed anytime from any device, even offline.
Learn more »
comments
print report bad tab
1 comment total.
0 reply
brandnewjunkie 113 Nov 04, 2005 01:41 PM

Good job, that's a heck of a lot easier than the other tab...and it's the same notes! But try this for the correct intro/verse...
eb------------------------------------------------------------------|
Bb------2-----2-----2-----2-----2-------2-----2-----0-----0-----0---|
Gb----2-----2---2-----2-----2-----2---2-----2---2-----2-----2-----2-|
Db--2-----2-------2-----2-----2-----0-----0-------0-----0-----0-----|
Ab------------------------------------------------------------------|
Eb------------------------------------------------------------------|

guest
Wanna post a correction for this tab? Suggest correction