Oops, an error
Loading. Please wait.

Moshi Moshi bass

version 1
version 1

Whole song

Interactive

1,428 views 1 this week
1 commentread comment
1 2 3 4 5
1 last vote to show rating
add to favorites
×
Save as Personal and add changes to this tab that will be seen only by you. Learn more ›
×
You can save this tab as Personal to edit and correct it or add notes. All changes will be seen only by you. Learn more »
launch autoscroll
font size
0
reset
guitar tuner
edit
Autoscroll
slow
fast
+/-
esc
set tempo
stop
Band: Brand New
Album: Safety In Numbers Split CD
Song: Moshi Moshi
Track: 2

Tabbed by: safetyinnumbers
Tuning: Half-step down Eb,Ab,Db,Gb

I know this isn't perfect, but it's close.

Verse
"I think I'm crazy baby..."
Gb----------------------------|
Db----------------------------|
Ab-----------55555555-5h7p5-\-|
Eb-5555555555-----------------| \
                              X 2
Gb---------------------------| /
Db---------------------------|
Ab----------5555-777/121212--|
Eb-555555555-----------------|

Pre-chorus
"What do I do when you..."
Gb-----------------------------------------------------------|
Db-----------------------------------------------------------|
Ab-22222222-5555555-2222222--7777777-5555555-4444444-2222222-| X 1
Eb-----------------------------------------------------------|

chorus
"Are you thinking of me..."
Gb----------------------------------------------------------------|
Db----------------------------------------------------------------|
Ab-5555555-7777777-------------------5555555-777777---------------| X 1
Eb----------------5555-4444-2222-0000--------------55555/12121212-|

"You're wasting your time..."
Gb----------------------------------------------------------|
Db----------------------------------------------------------|
Ab-5555555-7777777-------------------5555555-7~-------------| X 1
Eb----------------5555-4444-2222-0000----------555555(rest)-|

Verse
"I'm not imagining..."
Gb----------------------------|
Db----------------------------|
Ab-----------55555555-5h7p5-\-|
Eb-5555555555-----------------| \
                              X 2
Gb---------------------------| /
Db---------------------------|
Ab----------5555-777/121212--|
Eb-555555555-----------------|

Pre-chorus
"The more I hang around you..."
Gb-----------------------------------------------------------|
Db-----------------------------------------------------------|
Ab-22222222-5555555-2222222--7777777-5555555-4444444-2222222-| X 1
Eb-----------------------------------------------------------|

chorus
"Are you thinking of me..."
Gb----------------------------------------------------------------|
Db----------------------------------------------------------------|
Ab-5555555-7777777-------------------5555555-777777---------------| X 1
Eb----------------5555-4444-2222-0000--------------55555/12121212-|

"Well, you're wasting your time..."
Gb----------------------------------------------------------|
Db----------------------------------------------------------|
Ab-5555555-7777777-------------------5555555-7~-------------| X 1
Eb----------------5555-4444-2222-0000----------555555555555-|

Bridge
"I know that you're an angel..."
Gb----------------------------------------------------------------|
Db----------------------------------------------------------------|
Ab-99999999-7777777-55555/12121212--------------------------------| X 1
Eb--------------------------------22222222-0000000-55555/12121212-|

"Drop me like a brick..."

Gb----------------------------------------------------------------|
Db----------------------------------------------------------------|
Ab-5555555-7777777-------------------5555555-777777---------------| X 2
Eb----------------5555-4444-2222-0000--------------55555/12121212-|

Outro
No singing
Gb--------------|
Db--------------|
Ab--------------|
Eb-55555-55555\-|

            
            
Suggest correction
Creating personal tab
Creating personal tab
You can edit any tab online and save it as your Personal.

You can edit, replace or remove any tab part or add personal notes – all changes will be seen only by you.

Personal tabs can be accessed anytime from any device, even offline.
Learn more »
Give kudos to tab author, rate the tab!
1 2 3 4 5
comments
print report bad tab
1 comment total.
0 reply
Mr. Saturn 20 May 01, 2007 04:26 AM

Very good tab. Only things i found from looking over it was the second verse is different from the first verse in the pull off hammer on part.

guest
You may want to rate the tab now too:
select rating
Wanna post a correction for this tab? Suggest correction