Oops, an error
Loading. Please wait.

Noro bass

version 1
version 1

Whole song

Interactive

2,744 views 3 this week
no commentswrite comment
1 2 3 4 5
x 3
add to favorites
×
Save as Personal and add changes to this tab that will be seen only by you. Learn more ›
×
You can save this tab as Personal to edit and correct it or add notes. All changes will be seen only by you. Learn more »
launch autoscroll
font size
0
reset
guitar tuner
edit
Autoscroll
slow
fast
+/-
esc
set tempo
stop
-------------------------------------------------------------------------------
			     Noro - Brand New
-------------------------------------------------------------------------------

Tabbed By : Nick Seney
e-mail: theseney@yahoo.com

Tuning: Drop D

Gooood Song. Mostly Just play the main riff throughout, with exclusion of the little 
the guitar solos, and the beginning

Intro Bit
G|--------------------|
D|--------------------|
A|-577-57-57-57/10-5--|
D|--------------------|

Main Riff
G|---------------------------------------------------|
D|---------------------------------------------------|
A|---------------------------0-3-3-0-3--0-3--0-3--0--|
D|-0-2-2-0-2--0-2--0-2/5-0---------------------------|

Guitar Solo Something like this...
G|-------------------|
D|-------------------|
A|-------------------|
D|-7777777777777777--|

Little fill
G|-----------------------|
D|-141214---10~----------|
A|--------12-----141210--|
D|-----------------------|

Second Guitar Solo
G|--------------------------------------------|
D|--------------------------------------------|
A|--------------------------------------------|
D|-77777777-5555-6666-0-2-2-0-2--0-2--0-2/5-0-|

Outro=Main Riff

| /  slide up
| \  slide down
| h  hammer-on
| p  pull-off
| ~  vibrato
| +  harmonic
| x  Mute note
===============================================================================
Suggest correction
Creating personal tab
Creating personal tab
You can edit any tab online and save it as your Personal.

You can edit, replace or remove any tab part or add personal notes – all changes will be seen only by you.

Personal tabs can be accessed anytime from any device, even offline.
Learn more »
Give kudos to tab author, rate the tab!
1 2 3 4 5
comments
print report bad tab
guest
You may want to rate the tab now too:
select rating
Wanna post a correction for this tab? Suggest correction