Oops, an error
Loading. Please wait.

Okay I Believe You But My Tommy Gun Dont Ukulele Chords

version 1
version 1

Intro

Whole song

Interactive

46 views 1 this week
no commentswrite comment
1 2 3 4 5
2 more votes to show rating
add to favorites
launch autoscroll
font size
0
reset
transpose
0
reset
display chords
guitar tuner
Autoscroll
slow
fast
+/-
esc
set tempo
stop
Help us to improve Ultimate-Guitar.com Take our survey!
×
Difficulty
novice
Standard Tuning
A E C G
 
[Intro]
(For the palm muted intro) 
Strum: 
A|----------------------------------------------|
E|--0-0-0-0-0-0-0-0-3-3-3-3-3-3-3-3-0-0-0-0-----|
C|----------------------------------0-0-0-0-----|
G|--0-0-0-0-0-0-0-0-4-4-4-4-4-4-4-4-------------|

(for the fingerpicking) 
A|-------------------------------|
E|--0--0--0--0--3--3----0--0-----|
C|--------------------0--0-------|
G|---0--0--0--0--4--4------------| 
Suggest correction
Give kudos to tab author, rate the tab!
1 2 3 4 5
comments
print report bad tab
guest
You may want to rate the tab now too:
select rating
Wanna post a correction for this tab? Suggest correction