Oops, an error
Loading. Please wait.

Okay I Believe You But My Tommy Gun Dont tab

version 3
version 3
166,829 views 63 this week
37 commentsread comments
1 2 3 4 5
x 88
add to favorites
×
Save as Personal and add changes to this tab that will be seen only by you. Learn more ›
×
You can save this tab as Personal to edit and correct it or add notes. All changes will be seen only by you. Learn more »
launch autoscroll
font size
0
reset
how to read this tab
guitar tuner
edit
Autoscroll
slow
fast
+/-
esc
set tempo
stop
Author
Artist: Brand New
Song: Okay I believe you, but my tommy gun don't
Tabbed by: Sarasman
Email: vericetti@hotmail.com

(This Song is not really hard, its basically the same 
stuff over and over just changing a bit throughout the song.
I am really positive this is correct. The only reason it wouldn't
Be is if I made a mistake while typing it out, but I checked it.
This is as close as anyone has gotten. It'll probably be easier
If you listen to the song as you play too. Please tell me what you think)

PM = Palm Mute
~ = Let ring

[Intro/First Verse]
(Guitar 1)
Eb|---------------------------------------|
Bb|---------------------------------------|
Gb|---------------------------------------|
Db|--5-5-5-5-5-5-5-5-9-9-9-9-2-2-2-2------| 12x
Ab|--7-7-7-7-7-7-7-7-10-10-10-10-3-3-3-3--|  
Eb|---------------------------------------|
PM   . . . . . . . . . . . . . . . .

Eb|---------------------------------------------------------------------------|
Bb|---------------------------------------------------------------------------|
Gb|---------------------------------------------------------------------------|
Db|--4-4-4-4-4-4-4-4-4-4-4-4-4-4-4-4-9-9-9-9-9-9-9-9-9-9-9-9-9-9-9-9----------|
Ab|--5-5-5-5-5-5-5-5-2-2-2-2-2-2-2-2-10-10-10-10-10-10-10-10-7-7-7-7-7-7-7-7--|
Eb|---------------------------------------------------------------------------|
PM   . . . . . . . . . . . . . . . . . . . . . . . . . . . . . . . .

Eb|----------------------------------------------------------------------------------------------------|
Bb|----------------------------------------------------------------------------------------------------|
Gb|----------------------------------------------------------------------------------------------------|
Db|--4-4-4-4-4-4-4-4-4-4-4-4-4-4-4-4-9-9-9-9-9-9-9-9-9-9-9-9-5-5-5-5-4-4-4-4-4-4-4-4-4-4-4-4-4-4-4-4---|
Ab|--5-5-5-5-5-5-5-5-2-2-2-2-2-2-2-2-1010101010101010-7-7-7-7-7-7-7-7-5-5-5-5-5-5-5-5-5-5-5-5-5-5-5-5--|
Eb|----------------------------------------------------------------------------------------------------|
PM   . . . . . . . . . . . . . . . . . . . . . . . . . . . . . . . . . . . . . . . . . . . . . . . .

[Bridge/Second Verse]

(Guitar 1: Play with Guitar 2)
Eb|---------------------------------------|
Bb|---------------------------------------|
Gb|---------------------------------------| 
Db|--5-5-5-5-5-5-5-5-9-9-9-9-2-2-2-2------| 10x
Ab|--7-7-7-7-7-7-7-7-10-10-10-10-3-3-3-3--|  
Eb|---------------------------------------|
PM   . . . . . . . . . . . . . . . .

(Guitar 2: Play with Guitar 1)
Eb|----------------------------------------|
Bb|----------------------------------------|
Gb|----------------------------------------|
Db|----7---7---7---7----9----------2-------| 10x
Ab|--9---9---9---9---10---10--2--3---3--2--|
Eb|----------------------------------------|

(Guitar 1: Play with Guitar 2)
Eb|---------------------------------------------------------------------------|
Bb|---------------------------------------------------------------------------|
Gb|---------------------------------------------------------------------------|
Db|--4-4-4-4-4-4-4-4-4-4-4-4-4-4-4-4-9-9-9-9-9-9-9-9-9-9-9-9-9-9-9-9----------|
Ab|--5-5-5-5-5-5-5-5-2-2-2-2-2-2-2-2-10-10-10-10-10-10-10-10-7-7-7-7-7-7-7-7--|
Eb|---------------------------------------------------------------------------|
PM   . . . . . . . . . . . . . . . . . . . . . . . . . . . . . . . .

Eb|---------------------------------------------------------------------------------------------------|
Bb|---------------------------------------------------------------------------------------------------|
Gb|---------------------------------------------------------------------------------------------------|
Db|--4-4-4-4-4-4-4-4-4-4-4-4-4-4-4-4-9-9-9-9-9-9-9-9-9-9-9-9-5-5-5-5-4-4-4-4-4-4-4-4-4-4-4-4-4-4-4-4--|
Ab|--5-5-5-5-5-5-5-5-2-2-2-2-2-2-2-21010101010101010-7-7-7-7-7-7-7-7-5-5-5-5-5-5-5-5-5-5-5-5-5-5-5-5--|
Eb|---------------------------------------------------------------------------------------------------|
PM   . . . . . . . . . . . . . . . . . . . . . . . . . . . . . . . . . . . . . . . . . . . . . . . .

(Guitar 2: Play with Guitar 1)
Eb|---------------------------------------------------------------------|
Bb|---------------------------------------------------------------------|
Gb|---------------------------------------0--------0-------0-------0----|
Db|----4-0-4---4-0-4---4-0-4---4-0-4----9---9----9---9---9---9---9---9--| 2x
Ab|--5-------5-------2-------2-------10-------10-------7-------7--------|
Eb|---------------------------------------------------------------------|

Eb|-----------------------------------|
Bb|-----------------------------------|
Gb|-----------------------------------|
Db|----4---4---4---4---7---7---7---7--|
Ab|--5---5---5---5---5---5---5---5----|
Eb|-----------------------------------|

[Chorus]
(Guitar 1 with distortion heavy)
Eb|-----------------------------------------------------------------------|
Bb|-----------------------------------------------------------------------|
Gb|-------------5-5-5-5-5-5------------5-5-5-5-5-5------------------------|
Db|--5-5-5-5-5-5-5-5-5-5-5-5-2-2-2-2-2-2-5-5-5-5-5-5----------------------| 2x
Ab|--5-5-5-5-5-5-3-3-3-3-3-3-2-2-2-2-2-2-3-3-3-3-3-3----------------------|
Eb|--3-3-3-3-3-3------------0-0-0-0-0-0-----------------------------------|

[Verse 3]
(Guitar 1)
Eb|---------------------------------------|
Bb|---------------------------------------|
Gb|---------------------------------------|
Db|--5-5-5-5-5-5-5-5-9-9-9-9-2-2-2-2------| 10x
Ab|--7-7-7-7-7-7-7-7-10-10-10-10-3-3-3-3--|  
Eb|---------------------------------------|
PM   . . . . . . . . . . . . . . . .

(Guitar 2: Play with Guitar 1 after it does the section 2 times)
Eb|----------------------------------------|
Bb|----------------------------------------|
Gb|----------------------------------------|
Db|----7---7---7---7----9----------2-------| 8x
Ab|--9---9---9---9---10---10--2--3---3--2--|
Eb|----------------------------------------|

(Guitar 1: Play with Guitar 2)
Eb|---------------------------------------------------------------------------|
Bb|---------------------------------------------------------------------------|
Gb|---------------------------------------------------------------------------|
Db|--4-4-4-4-4-4-4-4-4-4-4-4-4-4-4-4-9-9-9-9-9-9-9-9-9-9-9-9-9-9-9-9----------|
Ab|--5-5-5-5-5-5-5-5-2-2-2-2-2-2-2-2-10-10-10-10-10-10-10-10-7-7-7-7-7-7-7-7--|
Eb|---------------------------------------------------------------------------|
PM   . . . . . . . . . . . . . . . . . . . . . . . . . . . . . . . .

Eb|---------------------------------------------------------------------------------------------------|
Bb|---------------------------------------------------------------------------------------------------|
Gb|---------------------------------------------------------------------------------------------------|
Db|--4-4-4-4-4-4-4-4-4-4-4-4-4-4-4-4-9-9-9-9-9-9-9-9-9-9-9-9-5-5-5-5-4-4-4-4-4-4-4-4-4-4-4-4-4-4-4-4--|
Ab|--5-5-5-5-5-5-5-5-2-2-2-2-2-2-2-21010101010101010-7-7-7-7-7-7-7-7-5-5-5-5-5-5-5-5-5-5-5-5-5-5-5-5--|
Eb|---------------------------------------------------------------------------------------------------|
PM   . . . . . . . . . . . . . . . . . . . . . . . . . . . . . . . . . . . . . . . . . . . . . . . .

(Guitar 2: Play with Guitar 1)
Eb|-----------------------------------------------------------------------|
Bb|-----------------------------------------------------------------------|
Gb|-----------------------------------------------------------------------|
Db|----4-0-4---4-0-4---4-0-4---4-0-4----9----9----9----9---9---9---9---9--| 2x
Ab|--5-------5-------2-------2-------10---10---10---10---7---7---7---7----|
Eb|-----------------------------------------------------------------------|

Eb|-----------------------------------|
Bb|-----------------------------------|
Gb|-----------------------------------|
Db|--4-4-4-4-4-4-4-4-7-7-7-7-7-7-7-7--|
Ab|--5-5-5-5-5-5-5-5-5-5-5-5-5-5-5-5--|
Eb|-----------------------------------|
PM   . . . . . . . . . . . . . . . . 

[Chorus 2]
(Guitar 1 with distortion heavy)
Eb|-----------------------------------------------------------------------|
Bb|-----------------------------------------------------------------------|
Gb|-------------5-5-5-5-5-5------------5-5-5-5-5-5------------------------|
Db|--5-5-5-5-5-5-5-5-5-5-5-5-2-2-2-2-2-2-5-5-5-5-5-5----------------------| 4x
Ab|--5-5-5-5-5-5-3-3-3-3-3-3-2-2-2-2-2-2-3-3-3-3-3-3----------------------|
Eb|--3-3-3-3-3-3------------0-0-0-0-0-0-----------------------------------|

[Bridge 2]
(Guitar 1 with distortion heavy)
Eb|--------------------------|
Bb|--------------------------|
Gb|--------9~~~~~~-----------|
Db|--2~~~--9~~~~~~-2~~~2~~~--| 4x
Ab|--2~~~--7~~~~~~-2~~~2~~~--|
Eb|--0~~~----------0~~~0~~~--|

Eb|---------------------------------|
Bb|---------------------------------|
Gb|--------9~~~~~~------------------|
Db|--2~~~--9~~~~~~------------------| 4x
Ab|--2~~~--7~~~~~~-----3------------|
Eb|--0~~~----------2-3---3-2-3-2-3--|

[Verse]
(Guitar 2: Use a strumming pattern)
Eb|-------------------------------------|
Bb|-------------------------------------|
Gb|-------------------------------------|
Db|--2-2-2-2-2-2-2-2-5-5-5-5-3-3-3-2~~--| 6x
Ab|--2-2-2-2-2-2-2-2-5-5-5-5-3-3-3-2~~--|
Eb|--0-0-0-0-0-0-0-0-3-3-3-3-1-1-1-0~~--|

Chorus 3:
(Guitar 1 with distortion heavy)
Eb|-----------------------------------------------------------------------|
Bb|-----------------------------------------------------------------------|
Gb|-------------5-5-5-5-5-5------------5-5-5-5-5-5------------------------|
Db|--5-5-5-5-5-5-5-5-5-5-5-5-2-2-2-2-2-2-5-5-5-5-5-5----------------------| 4x
Ab|--5-5-5-5-5-5-3-3-3-3-3-3-2-2-2-2-2-2-3-3-3-3-3-3----------------------|
Eb|--3-3-3-3-3-3------------0-0-0-0-0-0-----------------------------------|

[Outro]
(Guitar 1 with distortion heavy)
Eb|---------------------------------|
Bb|---------------------------------|
Gb|--------9~~~~~~------------------|
Db|--2~~~--9~~~~~~------------------|
Ab|--2~~~--7~~~~~~-----3------------|
Eb|--0~~~----------2-3---3-2-3-2-3--|

Eb|-------------------------|
Bb|-------------------------|
Gb|--------9~~~~~~----------|
Db|--2~~~--9~~~~~~----------|
Ab|--2~~~--7~~~~~~-----3----|
Eb|--0~~~----------2-3---3--|


************************************

| b   Bend
| PM  Palm mute
| ~   Vibrato

************************************
Suggest correction
Creating personal tab
Creating personal tab
You can edit any tab online and save it as your Personal.

You can edit, replace or remove any tab part or add personal notes – all changes will be seen only by you.

Personal tabs can be accessed anytime from any device, even offline.
Learn more »
comments
print report bad tab
37 comments total. Showing first comments.
+5 reply
Nuke2033 10 Jun 05, 2004 08:00 PM

Way better than the other versions

+4 reply
seanarooni 30 Jun 16, 2004 08:00 PM

good job you actually got it right!

+10 reply
landrun 58 Jul 03, 2004 08:00 PM

a near perfect tab 2 quality trace wd, bt 1 mistake (probs typo)
(1:15) just after the lyric "wish I Knew" repeated
Guitar 2: Play with Guitar 1
Eb|----------------------------------------|Eb
Bb|----------------------------------------|Bb
Gb|----------------------------------------|Gb
Db|----5---5---5---5----9----------2-------|Db 10x
Ab|--7---7---7---7---10---10--2--3---3--2--|Ab
Eb|----------------------------------------|Eb

Robbyo

guest
You may want to rate the tab now too:
select rating
Wanna post a correction for this tab? Suggest correction