Oops, an error
Loading. Please wait.

Play Crack The Sky tab

version 3
version 3

Whole song

Interactive

76,705 views 27 this week
13 commentsread comments
1 2 3 4 5
x 33
add to favorites
×
Save as Personal and add changes to this tab that will be seen only by you. Learn more ›
×
You can save this tab as Personal to edit and correct it or add notes. All changes will be seen only by you. Learn more »
launch autoscroll
font size
0
reset
how to read this tab
guitar tuner
edit
Autoscroll
slow
fast
+/-
esc
set tempo
stop
Author
[Intro]
e|Eb----x---3-----------------------------------------------------|
B|b----x---3-----------------------------------------------------|
G|b----x---0-----------------------------------------------------|
D|b----x---0-----------------------------------------------------|
A|b----x---2-----------------------------------------------------|
E|b----x---3-----------------------------------------------------|
          D        "1, 2, 3...1...1, 2..."

[Verse]
("We sent out the SOS call...")
e|--------333-3--3-333-3--3-333-3--3-333-3--3-333-3--3-333-0--0-000-0~-|
B|--------333-3--3-333-3--3-333-3--3-333-3--3-333-3--3-333-0--0-000-0~-|
G|-----0--000-0--0-000-0--0-000-0--0-000-0--0-000-0--0-000-0--0-000-0~-|
D|---x-0--000-2--2-222-0--0-000-2--2-222-0--0-000-2--2-222-2--2-222-2~-|
A|--xx-2--222-3--3-333-2--2-222-3--3-333-2--2-222-3--3-333-2--2-222-0~-|
E|--xx-3--333----------3--3-333----------3--3-333----------0--0-000----|
       D  DUD D  D UDU D  D UDU D  D UDU D  D UDU D  D UDU D  D UDU D

e|---3-------|
B|---3-------| 
G|-0-0-------| 
D|-2-2-------|
A|-0-0-------|
E|-----------|
   D U

(Play the verse with lead 5 times total)

[Lead]
(to first chorus)
e|--000----------------------------------------------------------------|
B|--000----------------0-0---------------------------------------------|
G|--000-0~--0~------0---0----------------------------------------------|
D|--222-2~--2~------2-2------------------------------------------------|
A|--000-0~--0~--0---0--------------------------------------------------|
E|---------------------------------------------------------------------|
    DUD D   D       D

[Chorus]
("The hole in the hull...")
e|-0--000-0--000-3-333-3-333-0------000-0------------------------------|
B|-1--111-1--111-3-333-3-333-0------000-0----0-0-----------------------|
G|-0--000-0--000-0-000-0-000-0------000-0-----0------------------------|
D|-2--222-2--222-0-000-0-000-2------222-2-2-2--------------------------|
A|-3--333-3--333-2-222-2-222-2--2---222-0------------------------------|
E|---------------3-333-3-333-0------000--------------------------------|
   D  DUD D  DUD D DUD D DUD D      DUD D

e|----000-0--000-3---3-333-3-0-----000-0~------------------------------|
B|----111-1--111-3---3-333-3-0-----000-0~------------------------------|
G|-0--000-0--000-0---0-000-0-0-----000-0~------------------------------|
D|-2--222-2--222-0---0-000-0-2-----222-2~------------------------------|
A|-3--333-3--333-2---2-222-2-2--2--222-0~------------------------------|
E|---------------3---3-333-3-0--0--000---------------------------------|
   D  DUD D  DUD D   D UDU D D  D  DUD D

(After you play this, return to the lead(to verse) and verse 5 more times. This part of 
song is where the leads to verse vary the most).

[Lead]
(to second Chorus)
e|---------------------------------------------------------------------|
B|--------0-0----0-0---------------------------------------------------|
G|---------0------0----------------------------------------------------|
D|--2--2-2----2-2------------------------------------------------------|
A|--0------------------------------------------------------------------|
E|---------------------------------------------------------------------|

[Chorus 2]
("They say that the captain...")
e|-0--000-0--000-3---3-3333-0--0--0-000-0------------------------------|
B|-1--111-1--111-3---3-3333-0--0--0-000-0----0-0--0-0------------------|
G|-0--000-0--000-0---0-0000-0--0--0-000-0-----0----00------------------|
D|-2--222-2--222-0---0-0000-2--2--2-222-2-2-2----2---------------------|
A|-3--333-3--333-2---2-2222-2--2--2-222-0------------------------------|
E|---------------3---3-3333-0--0--0-000--------------------------------|
   D  DUD D  DUD D   D DDUD D  D  D DUD D

e|-0--000-0--000-3----3-333-0---0-000-0--------------------------------|
B|-1--111-1--111-3----3-333-0---0-000-0--------------------------------|
G|-0--000-0--000-0----0-000-0---0-000-0--------------------------------|
D|-2--222-2--222-0----0-000-2---2-222-2--------------------------------|
A|-3--333-3--333-2----2-222-2---2-222-0--------------------------------|
E|---------------3----3-333-0---0-000----------------------------------|
   D  DUD D  DUD D    D DUD D   D DUD D

[Interlude]
e|--------------------------------0--00--------------------------------|
B|----0-0----0-0----0-0----0-0--0-0--00--------------------------------|
G|-----0------0------0------0---0-0--00--------------------------------|
D|-2-2----2-2----2-2----2-2---2-2-2--22--------------------------------|
A|--------------------------------0--00--------------------------------|
E|---------------------------------------------------------------------|
                                D D  DU
                                
[Outro]
("This story's old but it goes on and on...")
e|----3-3-33---3-33----3-3-33---33----3-33---3-33----3-33---3-33-------|(x2)
B|----3-3-33---3-33----3-3-33---33-3--3-33-3-3-33-3--3-33-3-3-33-------|
G|----0-0-00---0-00----0-0-00---00-0--0-00-0-0-00-0--0-00-0-0-00-------|
D|-0--0-0-00-0-0-00--0-0-0-00-0-00-2--2-22-2-2-22-2--2-22-2-2-22-------|
A|-2--2-2-22-2-2-22--2-2-2-22-2-22-3--3-33-3-3-33-3--3-33-3-3-33-------|
E|-3--3-3-33-3-3-33--3-3-3-33-3-33-------------------------------------|
   D  D D DU D D DU  D D D DU D DU D  D DU D D DU D  D DU D D DU

e|----0-0-00---0-00----0-0-00---00----3-33---3-33----3-33---3-33-------|
B|----0-0-00---0-00----0-0-00---00-3--3-33-3-3-33-3--3-33-3-3-33-------|
G|----0-0-00---0-00----0-0-00---00-0--0-00-0-0-00-0--0-00-0-0-00-------|
D|-2--2-2-22-2-2-22-2--2-2-22-2-22-2--2-22-2-2-22-2--2-22-2-2-22-------|
A|-2--2-2-22-2-2-22-2--2-2-22-2-22-3--3-33-3-3-33-3--3-33-3-3-33-------|
E|-0--0-0-00-0-0-00-0--0-0-00-0-00-------------------------------------|
   D  D D DU D D DU D  D D DU D DU D  D DU D D DU D  D DU D D DU

[Lead]
e|--3~~----|
B|--3~~----| (Let ring out
G|--0~~----| completely)
D|--0~~----|
A|--2~~----|
E|--3~~----|

************************************

| x  Dead note
| b  Bend
| ~  Vibrato

************************************

            
            
Suggest correction
Creating personal tab
Creating personal tab
You can edit any tab online and save it as your Personal.

You can edit, replace or remove any tab part or add personal notes – all changes will be seen only by you.

Personal tabs can be accessed anytime from any device, even offline.
Learn more »
comments
print report bad tab
13 comments total. Showing first comments.
0 reply
cpt. insano 10 Feb 19, 2006 08:37 AM

this song rocks your tab rocks thanks for putting it up it is real easy to uunderstand aswell !

0 reply
SaintJimmy105 341 Feb 21, 2006 03:47 PM

Thanks much.

0 reply
TeenBite 40 Jun 05, 2006 08:40 AM

Best tab on UG I think. You've set it out stunningly.

guest
You may want to rate the tab now too:
select rating
Wanna post a correction for this tab? Suggest correction