Oops, an error
Loading. Please wait.

Quiet Things tab

version 2
version 2

Whole song

2,473 views 1 this week
3 commentsread comments
1 2 3 4 5
2 more votes to show rating
add to favorites
×
Save as Personal and add changes to this tab that will be seen only by you. Learn more ›
×
You can save this tab as Personal to edit and correct it or add notes. All changes will be seen only by you. Learn more »
launch autoscroll
font size
0
reset
how to read this tab
guitar tuner
edit
Autoscroll
slow
fast
+/-
esc
set tempo
stop
Difficulty
Guitar 1



0:01 - 0:12
e|-----3h2--2--------3h2--0-----3h2--2--------3h2--3--5--|
B|-------------3------------------------3----------------|
G|-------------------------------------------------------|
D|-----------------------------------------0-------------|
A|---------------------------3---------------------------|
E|--3-------------0--------------------------------------|


0:13 - 0:35
e|---------10---------------10--------------10--------------10-------|
B|--7-8-7-8---8-7-8--7-8-7-8--8-7-8--7-8-7-8--8-7-8--7-8-7-8--8-7-8--|
G|-------------------------------------------------------------------|
D|-------------------------------------------------------------------|
A|-------------------------------------------------------------------|
E|-------------------------------------------------------------------|

e|--------------15----------------------15------------|
B|--12-13-12-13---13-12-13--12-13-12-13----13-12-13---|
G|----------------------------------------------------|
D|----------------------------------------------------|
A|----------------------------------------------------|
E|----------------------------------------------------|

e|---------10---------------10--------------10--------------10-------|
B|--7-8-7-8---8-7-8--7-8-7-8--8-7-8--7-8-7-8--8-7-8--7-8-7-8--8-7-8--|
G|-------------------------------------------------------------------|
D|-------------------------------------------------------------------|
A|-------------------------------------------------------------------|
E|-------------------------------------------------------------------|

e|--------------15----------------------15------------|
B|--12-13-12-13---13-12-13--12-13-12-13----13-12-13---|
G|----------------------------------------------------|
D|----------------------------------------------------|
A|----------------------------------------------------|
E|----------------------------------------------------|

e|----------10----------------10----------------------|
B|--7-8-7-8----8-7-8--7-8-7-8----8-7-8----------------|
G|----------------------------------------------------|
D|----------------------------------------------------|
A|----------------------------------------------------|
E|----------------------------------------------------|

e|--------------15----------------------15------------|
B|--12-13-12-13---13-12-13--12-13-12-13----13-12-13---|
G|----------------------------------------------------|
D|----------------------------------------------------|
A|----------------------------------------------------|
E|----------------------------------------------------|


0:50 - 0:58
e|-------------------|  X3
B|-------------------|
G|--12/11--11--7-----|
D|---x-x----x--x-----|
A|--10/9----9--5-----|
E|-------------------|


1:01 - 1:24
e|---------10---------------10--------------10--------------10-------|
B|--7-8-7-8---8-7-8--7-8-7-8--8-7-8--7-8-7-8--8-7-8--7-8-7-8--8-7-8--|
G|-------------------------------------------------------------------|
D|-------------------------------------------------------------------|
A|-------------------------------------------------------------------|
E|-------------------------------------------------------------------|

e|--------------15----------------------15------------|
B|--12-13-12-13---13-12-13--12-13-12-13----13-12-13---|
G|----------------------------------------------------|
D|----------------------------------------------------|
A|----------------------------------------------------|
E|----------------------------------------------------|

e|---------10---------------10--------------10--------------10-------|
B|--7-8-7-8---8-7-8--7-8-7-8--8-7-8--7-8-7-8--8-7-8--7-8-7-8--8-7-8--|
G|-------------------------------------------------------------------|
D|-------------------------------------------------------------------|
A|-------------------------------------------------------------------|
E|-------------------------------------------------------------------|

e|--------------15----------------------15------------|
B|--12-13-12-13---13-12-13--12-13-12-13----13-12-13---|
G|----------------------------------------------------|
D|----------------------------------------------------|
A|----------------------------------------------------|
E|----------------------------------------------------|

e|----------10----------------10----------------------|
B|--7-8-7-8----8-7-8--7-8-7-8----8-7-8----------------|
G|----------------------------------------------------|
D|----------------------------------------------------|
A|----------------------------------------------------|
E|----------------------------------------------------|

e|--------------15----------------------15------------|
B|--12-13-12-13---13-12-13--12-13-12-13----13-12-13---|
G|----------------------------------------------------|
D|----------------------------------------------------|
A|----------------------------------------------------|
E|----------------------------------------------------|


1:39 - 1:46
e|-------------------|  X3
B|-------------------|
G|--12/11--11--7-----|
D|---x-x----x--x-----|
A|--10/9----9--5-----|
E|-------------------|


1:50 - 2:12
e|---------10---------------10--------------10--------------10-------|
B|--7-8-7-8---8-7-8--7-8-7-8--8-7-8--7-8-7-8--8-7-8--7-8-7-8--8-7-8--|
G|-------------------------------------------------------------------|
D|-------------------------------------------------------------------|
A|-------------------------------------------------------------------|
E|-------------------------------------------------------------------|

e|--------------15----------------------15------------|
B|--12-13-12-13---13-12-13--12-13-12-13----13-12-13---|
G|----------------------------------------------------|
D|----------------------------------------------------|
A|----------------------------------------------------|
E|----------------------------------------------------|

e|---------10---------------10--------------10--------------10-------|
B|--7-8-7-8---8-7-8--7-8-7-8--8-7-8--7-8-7-8--8-7-8--7-8-7-8--8-7-8--|
G|-------------------------------------------------------------------|
D|-------------------------------------------------------------------|
A|-------------------------------------------------------------------|
E|-------------------------------------------------------------------|

e|--------------15----------------------15------------|
B|--12-13-12-13---13-12-13--12-13-12-13----13-12-13---|
G|----------------------------------------------------|
D|----------------------------------------------------|
A|----------------------------------------------------|
E|----------------------------------------------------|

e|----------10----------------10----------------------|
B|--7-8-7-8----8-7-8--7-8-7-8----8-7-8----------------|
G|----------------------------------------------------|
D|----------------------------------------------------|
A|----------------------------------------------------|
E|----------------------------------------------------|

e|--------------15----------------------15------------|
B|--12-13-12-13---13-12-13--12-13-12-13----13-12-13---|
G|----------------------------------------------------|
D|----------------------------------------------------|
A|----------------------------------------------------|
E|----------------------------------------------------|


2:13 - 2:59
e|-----3h2--2--------3h2--0-----3h2--2--------3h2--3--5--|  X4
B|-------------3------------------------3----------------|
G|-------------------------------------------------------|
D|-----------------------------------------0-------------|
A|---------------------------3---------------------------|
E|--3-------------0--------------------------------------|


3:00 - 3:13
e|----------10----------------10----------------------|
B|--7-8-7-8----8-7-8--7-8-7-8----8-7-8----------------|
G|----------------------------------------------------|
D|----------------------------------------------------|
A|----------------------------------------------------|
E|----------------------------------------------------|

e|--------------15----------------------15------------|
B|--12-13-12-13---13-12-13--12-13-12-13----13-12-13---|
G|----------------------------------------------------|
D|----------------------------------------------------|
A|----------------------------------------------------|
E|----------------------------------------------------|

e|----------10----------------10----------------------|
B|--7-8-7-8----8-7-8--7-8-7-8----8-7-8----------------|
G|----------------------------------------------------|
D|----------------------------------------------------|
A|----------------------------------------------------|
E|----------------------------------------------------|

e|--------------15----------------------15-------------------|
B|--12-13-12-13---13-12-13--12-13-12-13----13-12-13--7-8-7-8-|
G|-----------------------------------------------------------|
D|-----------------------------------------------------------|
A|-----------------------------------------------------------|
E|-----------------------------------------------------------|


3:15 - 3:23
e|--------------15----------------------15------------|
B|--12-13-12-13---13-12-13--12-13-12-13----13-12-13---|
G|----------------------------------------------------|
D|----------------------------------------------------|
A|----------------------------------------------------|
E|----------------------------------------------------|

e|----------10----------------10----------------------|
B|--7-8-7-8----8-7-8--7-8-7-8----8-7-8----------------|
G|----------------------------------------------------|
D|----------------------------------------------------|
A|----------------------------------------------------|
E|----------------------------------------------------|

e|--------------15----------------------15------------|
B|--12-13-12-13---13-12-13--12-13-12-13----13-12-13---|
G|----------------------------------------------------|
D|----------------------------------------------------|
A|----------------------------------------------------|
E|----------------------------------------------------|


3:24 - 3:48
e|---------10---------------10--------------10--------------10-------|
B|--7-8-7-8---8-7-8--7-8-7-8--8-7-8--7-8-7-8--8-7-8--7-8-7-8--8-7-8--|
G|-------------------------------------------------------------------|
D|-------------------------------------------------------------------|
A|-------------------------------------------------------------------|
E|-------------------------------------------------------------------|

e|--------------15----------------------15------------|
B|--12-13-12-13---13-12-13--12-13-12-13----13-12-13---|
G|----------------------------------------------------|
D|----------------------------------------------------|
A|----------------------------------------------------|
E|----------------------------------------------------|

e|---------10---------------10--------------10--------------10-------|
B|--7-8-7-8---8-7-8--7-8-7-8--8-7-8--7-8-7-8--8-7-8--7-8-7-8--8-7-8--|
G|-------------------------------------------------------------------|
D|-------------------------------------------------------------------|
A|-------------------------------------------------------------------|
E|-------------------------------------------------------------------|

e|--------------15----------------------15------------|
B|--12-13-12-13---13-12-13--12-13-12-13----13-12-13---|
G|----------------------------------------------------|
D|----------------------------------------------------|
A|----------------------------------------------------|
E|----------------------------------------------------|

e|----------10----------------10----------------------|
B|--7-8-7-8----8-7-8--7-8-7-8----8-7-8----------------|
G|----------------------------------------------------|
D|----------------------------------------------------|
A|----------------------------------------------------|
E|----------------------------------------------------|

e|--------------15----------------------15------------|
B|--12-13-12-13---13-12-13--12-13-12-13----13-12-13---|
G|----------------------------------------------------|
D|----------------------------------------------------|
A|----------------------------------------------------|
E|----------------------------------------------------|


*************************************************************


Guitar 2



0:13 - 0:35
e|----------------------------------------------------------|  X2
B|----------------------------------------------------------|
G|----------------------------------------------------------|
D|----5555555555555555--2222222222222222--------------------|
A|----5555555555555555--2222222222222222--------------------|
E|----3333333333333333--0000000000000000--------------------|

e|----------------------------------------------------------|
B|----------------------------------------------------------|
G|----5555555555555555--7777777777777777--------------------|
D|----5555555555555555--7777777777777777--------------------|
A|----3333333333333333--5555555555555555--------------------|
E|----------------------------------------------------------|


0:36 - 0:37
e|-------------|
B|-------------|
G|-------------|
D|-------------|
A|--5--5x------|
E|--3--3x--8/--|


0:38 - 1:00
e|----------------------------------------------------------|  X2
B|----------------------------------------------------------|
G|----------------------------------------------------------|
D|----------------------5555555555555555--------------------|
A|----5555555555555555--3333333333333333--------------------|
E|----3333333333333333--------------------------------------|
      ****************  ****************

e|----------------------------------------------------------|
B|----------------------------------------------------------|
G|----------------------------------------------------------|
D|----------------------5555555555555555--------------------|
A|----2222222222222222--3333333333333333--------------------|
E|----0000000000000000--------------------------------------|
      ****************  ****************


1:01 - 1:24
e|----------------------------------------------------------|  X2
B|----------------------------------------------------------|
G|----------------------------------------------------------|
D|----5555555555555555--2222222222222222--------------------|
A|----5555555555555555--2222222222222222--------------------|
E|----3333333333333333--0000000000000000--------------------|

e|----------------------------------------------------------|
B|----------------------------------------------------------|
G|----5555555555555555--7777777777777777--------------------|
D|----5555555555555555--7777777777777777--------------------|
A|----3333333333333333--5555555555555555--------------------|
E|----------------------------------------------------------|


1:25 - 1:26
e|-------------|
B|-------------|
G|-------------|
D|-------------|
A|--5--5x------|
E|--3--3x--8/--|


1:27 - 1:49
e|----------------------------------------------------------|  X2
B|----------------------------------------------------------|
G|----------------------------------------------------------|
D|----------------------5555555555555555--------------------|
A|----5555555555555555--3333333333333333--------------------|
E|----3333333333333333--------------------------------------|
      ****************  ****************

e|----------------------------------------------------------|
B|----------------------------------------------------------|
G|----------------------------------------------------------|
D|----------------------5555555555555555--------------------|
A|----2222222222222222--3333333333333333--------------------|
E|----0000000000000000--------------------------------------|
      ****************  ****************


1:50 - 2:12
e|----------------------------------------------------------|
B|----------------------------------------------------------|
G|----------------------------------------------------------|
D|----5555555555555555--2222222222222222--------------------|
A|----5555555555555555--2222222222222222--------------------|
E|----3333333333333333--0000000000000000--------------------|

e|----------------------------------------------------------|
B|----------------------------------------------------------|
G|----5555555555555555--7777777777777777--------------------|
D|----5555555555555555--7777777777777777--------------------|
A|----3333333333333333--5555555555555555--------------------|
E|----------------------------------------------------------|


2:37 - 2:59
e|----------------------------------------------------------|  X2
B|----------------------------------------------------------|
G|----------------------------------------------------------|
D|----5555555555555555--2222222222222222--------------------|
A|----5555555555555555--2222222222222222--------------------|
E|----3333333333333333--0000000000000000--------------------|
      ****************  ****************

e|----------------------------------------------------------|
B|----------------------------------------------------------|
G|----5555555555555555--7777777777777777--------------------|
D|----5555555555555555--7777777777777777--------------------|
A|----3333333333333333--5555555555555555--------------------|
E|----------------------------------------------------------|
      ****************  **************** 


3:00 - 3:23
e|----------------------------------------------------------|
B|----------------------------------------------------------|
G|----------------------------------------------------------|
D|----5555555555555555--2222222222222222--------------------|
A|----5555555555555555--2222222222222222--------------------|
E|----3333333333333333--0000000000000000--------------------|

e|----------------------------------------------------------|
B|----------------------------------------------------------|
G|----5555555555555555--7777777777777777--------------------|
D|----5555555555555555--7777777777777777--------------------|
A|----3333333333333333--5555555555555555--------------------|
E|----------------------------------------------------------|

e|----------------------------------------------------------|
B|----------------------------------------------------------|
G|----------------------------------------------------------|
D|----5555x--2222222222222222-------------------------------|
A|----5555x--2222222222222222-------------------------------|
E|----3333x--0000000000000000-------------------------------|

e|----------------------------------------------------------|
B|----------------------------------------------------------|
G|----5555555555555555--7777777777777777--------------------|
D|----5555555555555555--7777777777777777--------------------|
A|----3333333333333333--5555555555555555--------------------|
E|----------------------------------------------------------|


3:24 - 3:48
e|----------------------------------------------------------|  X2
B|----------------------------------------------------------|
G|----------------------------------------------------------|
D|----5555555555555555--2222222222222222--------------------|
A|----5555555555555555--2222222222222222--------------------|
E|----3333333333333333--0000000000000000--------------------|

e|----------------------------------------------------------|
B|----------------------------------------------------------|
G|----5555555555555555--7777777777777777--------------------|
D|----5555555555555555--7777777777777777--------------------|
A|----3333333333333333--5555555555555555--------------------|
E|----------------------------------------------------------|

            
            
Suggest correction
Creating personal tab
Creating personal tab
You can edit any tab online and save it as your Personal.

You can edit, replace or remove any tab part or add personal notes – all changes will be seen only by you.

Personal tabs can be accessed anytime from any device, even offline.
Learn more »
Give kudos to tab author, rate the tab!
1 2 3 4 5
comments
print report bad tab
3 comments total.
0 reply
Moontard 31 Jan 31, 2008 06:17 AM

first part of intro is wrong, also there are many other good tabs of this song, so it was pointless to tab it.

0 reply
Alexishxc1337 368 Jan 31, 2008 03:55 PM

Moontard is correct.

0 reply
JesseLaceyIsGod 684 Feb 01, 2008 04:40 PM

yeah man, this definitely isn't correct, especially intro.

guest
Wanna post a correction for this tab? Suggest correction