Oops, an error
Loading. Please wait.

Secondary bass

version 1
version 1

Whole song

Interactive

914 views 1 this week
no commentswrite comment
1 2 3 4 5
3 more votes to show rating
add to favorites
×
Save as Personal and add changes to this tab that will be seen only by you. Learn more ›
×
You can save this tab as Personal to edit and correct it or add notes. All changes will be seen only by you. Learn more »
launch autoscroll
font size
0
reset
guitar tuner
edit
Autoscroll
slow
fast
+/-
esc
set tempo
stop
I noticed there wasn't a tab for this so...

Band: Brand New
Song: Secondary
Album: Your Favorite Weapon
Tuning: Drop D (DADG)

*-Let Note Ring

Intro
G|---------------------------------------|
D|---------------------------------------|
A|-3-444---------------------------------|
D|-------6-44444444-5-666-3-00000000-----|

G|-------------------------------|
D|-------------------------------|
A|-3-444-------------------------|
D|-------6-44444444-5-666-3------|

Verse x2
G|----------------------------------------------------------------------|
D|----------------------------------------------------------------------|
A|-4444444444444444-----------------------------------------------------|
D|------------------4444444444444444-3333333333333333--6666666644444444-|

Chorus
G|----------------------------------------------------|
D|----------------------------------------------------|
A|-444-------444-------444----------------------------|
D|------666-------444-------666--4444444444444444-----|

Repeat Intro Once
Repeat Verse x2
Repeat Chorus x2 

Bridge
G|--------------------------------------------|
D|--------------------------------------------|
A|--4*------------------4*--------------------|
D|------------4*--------------6*----4*--------|

These are 11's and 10's
G|-11-10--6--11-10--8--11-10--6----------------------|
D|---------------------------------------------------|
A|---------------------------------------------------|
D|-------------------------------66666666444444444---|

Repeat Verse x2
Repeat chorus Once
Repeat the Progression of the Chorus but play the notes in eighth notes x1

Coda
G|----------------------------------------------------------------|
D|----------------------------------------------------------------|
A|-44444444----------44444444----------44444444-------------------|
D|----------66666666----------44444444----------6*--------4*------|

and there ya go

            
            
Suggest correction
Creating personal tab
Creating personal tab
You can edit any tab online and save it as your Personal.

You can edit, replace or remove any tab part or add personal notes – all changes will be seen only by you.

Personal tabs can be accessed anytime from any device, even offline.
Learn more »
Give kudos to tab author, rate the tab!
1 2 3 4 5
comments
print report bad tab
guest
You may want to rate the tab now too:
select rating
Wanna post a correction for this tab? Suggest correction