Oops, an error
Loading. Please wait.

Sic Transit Gloria Glory Fades Bass

version 4
version 4

Interactive

4,166 views 1 this week
2 commentsread comments
1 2 3 4 5
x 5
add to favorites
launch autoscroll
font size
0
reset
guitar tuner
backing track
0:00
0:00
×
Best way to learn
"Sic Transit Gloria Glory Fades"
Autoscroll
slow
fast
+/-
esc
set tempo
stop
alright...I think my version of playing this is right...so here we go...

DROP D TUNING


intro/verse
G-----------------------------------/----------------------------------|
D--------------------6-5-----6-5-6-8/------------------6-5---6-5---6-5-|
A----3-3-3-3-3-3-3-3-----6----------/---3-3-3-3-3-3-3-3----6-----6-----|
D--------------------------6--------/----------------------------------|

chorus

G--------------------------------------------------------------------------|
D--------------------------------------------------------------------------|
A--3-3-3-3-3-3-3---------------------------8-8-8-8-6-6-6-6-----------------|
D----------------1-1-1-1-6h8-8-8-8-8-8-8-8-----------------6-6-6-6-3-3-1-1-|

IM not really sure about the bridge and stuff...but i think what i have is basically 
there you have it

rock on
Suggest correction
comments
print report bad tab
2 comments total.
0 reply
RouTe 27 BaSs 30 Jan 03, 2005 07:00 PM

oh yeh correction sry...on the intro it should be:
---------------------------------
-----------------6-5-----6-5---8-
-3-3-3-3-3-3-3-3-----6-------6---
-----------------------6---------

sry for that error

0 reply
deadrosebass 10 Jan 11, 2006 04:28 AM

Good Good, lil short though but oh well better than me!!

guest
You may want to rate the tab now too:
select rating
Wanna post a correction for this tab? Suggest correction