Oops, an error
Loading. Please wait.

Sic Transit Gloria Glory Fades bass

version 5
version 5

Interactive

5,175 views 33 this week
1 commentread comment
1 2 3 4 5
x 4
add to favorites
×
Save as Personal and add changes to this tab that will be seen only by you. Learn more ›
×
You can save this tab as Personal to edit and correct it or add notes. All changes will be seen only by you. Learn more »
launch autoscroll
font size
0
reset
guitar tuner
backing track
0:00
0:00
edit
Autoscroll
slow
fast
+/-
esc
set tempo
stop
Author
Difficulty
Band: Brand New
Album: Deja Entendu
Song: Sic Transit Gloria...Glory Fade
Track: 2

Listen to the rythem...

Tabbed by: safetyinnumbers(Dany)
Tuning: Half step down Eb,Ab,Db,Gb or D#,G#,C#,F#

 /  slide up
 \  slide down
 h  hammer-on
 p  pull-off
 ~  vibrato
 x  mute

Intro/Verse
"Keep the noise low, she doesn't want to blow it."
Gb-------------------------------|
Db---------------7-6-----7-6---9-|
Ab-4-4-4-4-4-4-4-----7-------7---|
Eb---------------------5---------|
                                  >X3
Gb-------------------------------|
Db---------------7-6----7-6--7-6-|
Ab-4-4-4-4-4-4-4-----7------7----|
Eb-------------------------------|
 "This is so messed up."
Gb-------------------------------|
Db-------------------------------|
Ab-------------------------------|
Eb-0~----------------------------|
 "Upon arrival the guests had all stared."
Gb-------------------------------|
Db---------------7-6-----7-6---9-|
Ab-4-4-4-4-4-4-4-----7-------7---|
Eb---------------------5---------|
                                  >x2
Gb--------------------------------|
Db---------------7-6----7-6--7-6--|
Ab-4-4-4-4-4-4-4-----7------7-----|
Eb--------------------------------|

Chorus
"The fever, the focus."
Gb-------------------------------------------I-------|I  (Play the mutes
Db-------------------------------------------I-------|Ix2 on the second
Ab-444444-------2222-4444-9999-7777----------I-------|I   time you play
Eb-------000000--------------------5555-2222-I-xxxx--|I   the chorus...)

Verse
"She hits the lights, this doesn't seem quite fair."
Gb-------------------------------|
Db---------------7-6-----7-6---9-|
Ab-4-4-4-4-4-4-4-----7-------7---|
Eb---------------------5---------|
                                  >x2
Gb-------------------------------|
Db---------------7-6----7-6--7-6-|
Ab-4-4-4-4-4-4-4-----7------7----|
Eb-------------------------------|

"Exactly what it feelsl like."
Gb-------------------------------|
Db-------------------------------|
Ab-------------------------------|
Eb-0~----------------------------|

"He is the lamb, she is the slaughter."
Gb-------------------------------|
Db---------------7-6-----7-6---9-|
Ab-4-4-4-4-4-4-4-----7-------7---|
Eb---------------------5---------|
                                  >x2
Gb-------------------------------|
Db---------------7-6----7-6--7-6-|
Ab-4-4-4-4-4-4-4-----7------7----|
Eb-------------------------------|

Chorus
"The fever, the focus."
Gb-------------------------------------------|
Db-------------------------------------------|x2
Ab-444444-------2222-4444-9999-7777----------|
Eb-------000000--------------------5555-2222-|

Bridge
No singing
Gb-----------------------------------------I--------|I   (On the third
Db-----------------------------------------I--------|IX3  time, after
Ab-4-0-0-0-0-----------4-0-0-0-0-4\7777777-I-7-77---|I    the slide play
Eb-----------2-0-0-0-0---------------------I--------|I    7's then play
                                                        the 7's in the
                                                        bar, listen to
                                                        the drums....)
Post-bridge
"Where the act becomes the art of growing up."
Gb-------------------------------|
Db---------------7-6----7-6--7-6-|
Ab-4-4-4-4-4-4-4-----7------7----|
Eb-------------------------------|

Outro/chorus
"The fever, the focus."
Gb-------------------------------------------|
Db-------------------------------------------|
Ab-444444-------2222-4444-9999-7777----------|
Eb-------000000--------------------5555-2222-|

Gb-------------------------------------------|
Db-------------------------------------------|
Ab-444444-------2222-4444-9999-7-77----------|
Eb-------000000------------------------------|

There you go, it should be correct.

Any questions or comments e-mail me at safetydate@aol.com

Enjoy.

            
            
Suggest correction
Creating personal tab
Creating personal tab
You can edit any tab online and save it as your Personal.

You can edit, replace or remove any tab part or add personal notes – all changes will be seen only by you.

Personal tabs can be accessed anytime from any device, even offline.
Learn more »
comments
print report bad tab
1 comment total.
+1 reply
grungemoshin2k8 10 May 17, 2008 11:43 PM

thanks and by the way its 7th and 6th fret on the d string then 7th fret on the e string not the a string :) ty though

guest
You may want to rate the tab now too:
select rating
Wanna post a correction for this tab? Suggest correction