Oops, an error
Loading. Please wait.

Sink bass

version 1
version 1

Whole song

Interactive

1,733 views 1 this week
no commentswrite comment
1 2 3 4 5
x 3
add to favorites
×
Save as Personal and add changes to this tab that will be seen only by you. Learn more ›
×
You can save this tab as Personal to edit and correct it or add notes. All changes will be seen only by you. Learn more »
launch autoscroll
font size
0
reset
guitar tuner
edit
Autoscroll
slow
fast
+/-
esc
set tempo
stop
-------------------------------------------------------------------------------
			     Sink - Brand New
-------------------------------------------------------------------------------

Tabbed By : Nick Seney
e-mail: theseney@yahoo.com

Tuning: Drop D

Verse (0:00-0:19)
G|-----------------|
D|-----------------|
A|-7-7-7-7-7-7-7-7-|
D|-----------------|x Many haha...

Yelling Part (0:19-0:21)
G|-------------------|
D|-------------------|
A|-------------------|
D|-10101010-7-77-7-7-|x1

Verse (0:21-0:29)
Yelling Part (0:29-0:34)

Chorus (0:34-0:45) The Rhythm of this is hard to translate...listen for timing
G|-----------------------------------------------------|
D|-----------------------------------------------------|
A|-----------------------------------------------------|
D|-2-2-2-/101010-2-2-2-/10-2-2-2-22-10101010-7-77-7-7--|


2nd Verse (0:45-1:08)
G|----------------------|
D|----------------------|
A|-7-7-7-7-7-7-/14-12---|
D|----------------------|

G|----------------------|
D|----------------------|
A|-7-7-7-7-7-7-7-7------|
D|----------------------|

G|----------------------|
D|----------------------|
A|-7-7-7-7-7-7-/14-12---|
D|----------------------|

G|-------------------|
D|-------------------|
A|-------------------|
D|-10101010-7-77-7-7-|

G|----------------------|
D|----------------------|
A|-7-7-7-7-7-7-/141210--|
D|----------------------|

G|----------------------|
D|----------------------|
A|-7-7-7-7-7-7-7-7------|
D|----------------------|

G|-------------------------|
D|-------------------------|
A|-7-7-7-7-7-7-7-7-/101214-|
D|-------------------------|

G|-------------------|
D|-------------------|
A|-------------------|
D|-10101010-7-77-7-7-|x2

Chorus (1:08-1:34) Note: there are a couple of little change ups in here at like the /10 
mess around with it a lil bit
G|-----------------------------------------------------|
D|-----------------------------------------------------|
A|-----------------------------------------------------|
D|-2-2-2-/101010-2-2-2-/10-2-2-2-22-10101010-7-77-7-7--|x2

G|-------------------|
D|-------------------|
A|-------------------|
D|-10101010-7-77-7-7-|x2

Breakdown (1:34-2:51)
G|---------------------------------------|
D|---------------------------------------|
A|-77777777-77777777-77777777-77777777---|
D|---------------------------------------|

G|--------------------------------------------------------|
D|--------------------------------------------------------|
A|-77777777-77777777-1010101010101010-1212121212121212----|
D|--------------------------------------------------------|x2

G|-----------------------------------------------------------|
D|-----------------------------------------------------------|
A|-77777777-77777777-1010101010101010-12121212-121415-121415-|
D|-----------------------------------------------------------|
Not sure about these little fills^^vv...but they sound alright, mess around with it
G|-----------------------------------------------------------|
D|-------------------------------------------------10--------|
A|-77777777-77777777-1010101010101010-12121212-1214--141210--|
D|-----------------------------------------------------------|

-------------------------------------------------------------------------|
D|-----------------------------------------------------------------------|
A|-----------------------------------------------------------------------|
E|-2-2-2-2-222-2-2--2-2-2-2-222-2-2--2-2-2-2-222-2-2--10101010-7-77-7-7--|x2

G|-------------------|
D|-------------------|
A|-------------------|
D|-10101010-7-77-7-7-|x2

Chorus (2:51-End)
G|-----------------------------------------------------|
D|-----------------------------------------------------|
A|-----------------------------------------------------|
D|-2-2-2-/101010-2-2-2-/10-2-2-2-22-10101010-7-77-7-7--|x2

G|-------------------|
D|-------------------|
A|-------------------|
D|-10101010-7-77-7-7-|x2

G|----|
D|----|
A|----|
D|-2~-|

| /  slide up
| \  slide down
| h  hammer-on
| p  pull-off
| ~  vibrato
| +  harmonic
| x  Mute note
===============================================================================

            
            
Suggest correction
Creating personal tab
Creating personal tab
You can edit any tab online and save it as your Personal.

You can edit, replace or remove any tab part or add personal notes – all changes will be seen only by you.

Personal tabs can be accessed anytime from any device, even offline.
Learn more »
Give kudos to tab author, rate the tab!
1 2 3 4 5
comments
print report bad tab
guest
You may want to rate the tab now too:
select rating
Wanna post a correction for this tab? Suggest correction