Oops, an error
Loading. Please wait.

Sowing Season tab

version 1
version 1

Whole song

Interactive

153,336 views 423 this week
12 commentsread comments
1 2 3 4 5
x 55
add to favorites
×
Save as Personal and add changes to this tab that will be seen only by you. Learn more ›
×
You can save this tab as Personal to edit and correct it or add notes. All changes will be seen only by you. Learn more »
launch autoscroll
font size
0
reset
how to read this tab
guitar tuner
edit
Autoscroll
slow
fast
+/-
esc
set tempo
stop
Author
Difficulty
-------------------------------------------------------------------------------
                         SOWING SEASON - Brand New
-------------------------------------------------------------------------------

Tuning: [Guitar 1: Standard Tuning EADGBe]
        [Guitar 2: Standard Tuning EADGBe]
        [Guitar 3: Open E Tuning  EBEG#Be] <- ALTERNATE TUNING!

*Note: Deja and Your Fav were in E-flat. Devil and God is in standard.
       They've changed keys, deal with it.

I have seen this performed live several times and I also was able to see a 
label on one of the guitars with the blues tuning that guitar 3 is in. 


[Verse]

[Guitar 1]
e|---------------------------------------------------------------------------|
B|---------------------------------------------------------------------------|
G|--(0)------------------------------------------------------------[x8]------|
D|---5-5-5-5-5-5-(0)---------------------------------------------------------|
A|---7-7-7-7-7-7-(0)-5-5-5-5-5-5-(0)-7-7-7-7-7-7-5-5-5-5-5-5-----------------|
E|-------------------7-7-7-7-7-7-(0)-5-5-5-5-5-5-3-3-3-3-3-3-----------------|


[Guitar 3]
e |--------------------------------------------------------------------------|
B |--15-12----12----15-12----12----15-12----12----15-12----------------------|
G#|--------13-------------13-------------13----------------------------------|
E |--------------15-------------15-------------15-------15-------------------|
B |--------------------------------------------------------------------------|
E |--------------------------------------------------------------------------|

e |--------------------------------------------------------------------------|
B |--15-12----12----15-12----12----15-12----12----15-12----------------------|
G#|--------13-------------13-------------13-------------13-13h15-------------|
E |--------------15-------------15-------------15----------------------------|
B |--------------------------------------------------------------------------|
E |-------------------------------------------------------------------[x2]---|


[Chorus]

[Guitar 1] the progression changes slightly on the 3rd time, trust me
e|---------------------------------------------------------------------------|
B|---------------------------------------------------------------------------|
G|---------------------------------------------------------------------------|
D|---5-5-5-5-5-5-(0)---------------------------------------------------------|
A|---7-7-7-7-7-7-(0)-5-5-5-5-5-5-(0)-7-7-7-7-7-7-5-5-5-5-5-5-----------------|
E|-------------------7-7-7-7-7-7-(0)-5-5-5-5-5-5-3-3-3-3-3-3-----------------|

e|---------------------------------------------------------------------------|
B|---------------------------------------------------------------------------|
G|---------------------------------------------------------------------------|
D|---5-5-5-5-5-5-(0)---------------------------------------------------------|
A|---7-7-7-7-7-7-(0)-5-5-5-5-5-5-(0)-7-7-7-7-7-7-5-5-5-5-5-5-----------------|
E|-------------------7-7-7-7-7-7-(0)-5-5-5-5-5-5-3-3-3-3-3-3-----------------|

e|---------------------------------------------------------------------------|
B|---------------------------------------------------------------------------|
G|---------------------------------------------------------------------------|
D|---9-9-9-9-9-9-9-----------------------------------------------------------|
A|---7-7-7-7-7-7-7--9-9-9-9-9-9-9--5-5-5-5-5-5--7-7-7-7-7-7------------------|
E|---0-0-0-0-0-0-0--7-7-7-7-7-7-7--3-3-3-3-3-3--5-5-5-5-5-5------------------|

e|---------------------------------------------------------------------------|
B|---------------------------------------------------------------------------|
G|---------------------------------------------------------------------------|
D|---5-5-5-5-5-5-(0)---------------------------------------------------------|
A|---7-7-7-7-7-7-(0)-5-5-5-5-5-5-(0)-7-7-7-7-7-7-5-5-5-5-5-5-----------------|
E|-------------------7-7-7-7-7-7-(0)-5-5-5-5-5-5-3-3-3-3-3-3-----------[x1]--|

[Guitar 2] 
e|-----------------------------------------------7-5-------------------------|
B|-------7b(8)r7-------------------------7b(8)r7-----7b(8)r7b(8)r7-----------|
G|-7-9-7---------7-9-7-------------7-9-7-------------------------------------|
D|------------------------9b(10)r9-------------------------------------------|
A|---------------------------------------------------------------------------|
E|---------------------------------------------------------------------[x4]--|

[Guitar 3] difficult to hear. saw this live. take down the mids and trebles
           a bunch and kick up the bass
e |--------------------------------------------------------------------------|
B |--------------------------------------------------------------------------|
G#|--------------------------------------------------------------------------|
E |--12-12-12-12-12-12-(0)-7-7-7-7-7-7-(0)-5-5-5-5-5-5-(0)-3-3-3-3-3-3-------|
B |--12-12-12-12-12-12-(0)-7-7-7-7-7-7-(0)-5-5-5-5-5-5-(0)-3-3-3-3-3-3-------|
E |--12-12-12-12-12-12-(0)-7-7-7-7-7-7-(0)-5-5-5-5-5-5-(0)-3-3-3-3-3-3-------|

e |--------------------------------------------------------------------------|
B |--------------------------------------------------------------------------|
G#|--------------------------------------------------------------------------|
E |--12-12-12-12-12-12-(0)-7-7-7-7-7-7-(0)-5-5-5-5-5-5-(0)-3-3-3-3-3-3-------|
B |--12-12-12-12-12-12-(0)-7-7-7-7-7-7-(0)-5-5-5-5-5-5-(0)-3-3-3-3-3-3-------|
E |--12-12-12-12-12-12-(0)-7-7-7-7-7-7-(0)-5-5-5-5-5-5-(0)-3-3-3-3-3-3-------|

e |--------------------------------------------------------------------------|
B |--------------------------------------------------------------------------|
G#|--------------------------------------------------------------------------|
E |--12-12-12-12-12-12-(0)-7-7-7-7-7-7-(0)-3-3-3-3-3-3-(0)-5-5-5-5-5-5-------|
B |--12-12-12-12-12-12-(0)-7-7-7-7-7-7-(0)-3-3-3-3-3-3-(0)-5-5-5-5-5-5-------|
E |--0--0--0--0--0--0--(0)-7-7-7-7-7-7-(0)-3-3-3-3-3-3-(0)-5-5-5-5-5-5-------|

e |--------------------------------------------------------------------------|
B |--------------------------------------------------------------------------|
G#|--------------------------------------------------------------------------|
E |--12-12-12-12-12-12-(0)-7-7-7-7-7-7-(0)-5-5-5-5-5-5-(0)-3-3-3-3-3-3-------|
B |--12-12-12-12-12-12-(0)-7-7-7-7-7-7-(0)-5-5-5-5-5-5-(0)-3-3-3-3-3-3-------|
E |--12-12-12-12-12-12-(0)-7-7-7-7-7-7-(0)-5-5-5-5-5-5-(0)-3-3-3-3-3-3-------|


[Post-Chorus]

[Guitar 3]
e |------7-----5-----5-----3--7-----5-----5-----0----------------------------|
B |--------8-----7-----7--------8-----7-----7--------------------------------|
G#|----------8-----6-----6--------8-----6-----6------------------------------|
E |--------------------------------------------------------------------------|
B |--------------------------------------------------------------------------|
E |-------------------------------------------------------------[x1]---------|

I'm reasonably sure that guitar 3 plays that on the studio recording. However,
live I know that guitar 2 plays it while guitar 3 does some kind of
atmospheric random sliding. Anyway here's how it looks for guitar 2.

e|--7-----------------------------7------------------------------------------|
B|----8-----10-------10-------------8-----10-------10------------------------|
G|------9------11-------11----12------9------11-------11----9----------------|
D|----------------12-------12-------------------12-------12------------------|
A|---------------------------------------------------------------------------|
E|-------------------------------------------------------------[x1]----------|


[Verse 2]

[Guitar 1]
e|---------------------------------------------------------------------------|
B|----------0-----------0-----------0-----------0----------------------------|
G|------0-----0-----0-----0-----0-----0-----0-----0--------------------------|
D|----5---5-------5---5-------5---5-------5---0-----5\-----------------------|
A|--7-----------5-----------3-----------2------------------------------------|
E|---------------------------------------------------------------------------|

e|---------------------------------------------------------------------------|
B|----------0-----------0-----------0-----------0----------------------------|
G|------0-----0-----0-----0-----0-----0-----0-----0--------------------------|
D|----5---5-------5---5-------5---5-------5---0------------------------------|
A|--7-----------5-----------0------------------------------------------------|
E|--------------------------------------3--------------------------[x2]------|

[Guitar 3] 
e |--------------------------------------------------------------------------|
B |--15-12----12----15-12----12----15-12----12----15-12----------------------|
G#|--------13-------------13-------------13----------------------------------|
E |--------------15-------------15-------------15-------15-------------------|
B |--------------------------------------------------------------------------|
E |--------------------------------------------------------------------------|

e |--------------------------------------------------------------------------|
B |--15-12----12----15-12----12----15-12----12----15-12----------------------|
G#|--------13-------------13-------------13-------------13-13h15-------------|
E |--------------15-------------15-------------15------------------[x2]------|
B |--------------------------------------------------------------------------|
E |--------------------------------------------------------------------------|

[Guitar 2] plays for second half of this verse
e|---------------------------------------------------------------------------|
B|---------------------------------5\3-1/3-0---------------------------------|
G|----0-----5\4-2/4-0------2/4-0-------------0-2/4---------------------------|
D|--2------------------------------------------------------------------------|
A|---------------------------------------------------------------------------|
E|---------------------------------------------------------------[x1]--------|


[Chorus]

[Guitar 1] the progression changes, just a reminder
e|---------------------------------------------------------------------------|
B|---------------------------------------------------------------------------|
G|---------------------------------------------------------------------------|
D|---5-5-5-5-5-5-(0)---------------------------------------------------------|
A|---7-7-7-7-7-7-(0)-5-5-5-5-5-5-(0)-7-7-7-7-7-7-5-5-5-5-5-5-----------------|
E|-------------------7-7-7-7-7-7-(0)-5-5-5-5-5-5-3-3-3-3-3-3-----------------|

e|---------------------------------------------------------------------------|
B|---------------------------------------------------------------------------|
G|---------------------------------------------------------------------------|
D|---5-5-5-5-5-5-(0)---------------------------------------------------------|
A|---7-7-7-7-7-7-(0)-5-5-5-5-5-5-(0)-7-7-7-7-7-7-5-5-5-5-5-5-----------------|
E|-------------------7-7-7-7-7-7-(0)-5-5-5-5-5-5-3-3-3-3-3-3-----------------|

e|---------------------------------------------------------------------------|
B|---------------------------------------------------------------------------|
G|---------------------------------------------------------------------------|
D|---9-9-9-9-9-9-9-----------------------------------------------------------|
A|---7-7-7-7-7-7-7--9-9-9-9-9-9-9--5-5-5-5-5-5--7-7-7-7-7-7------------------|
E|---0-0-0-0-0-0-0--7-7-7-7-7-7-7--3-3-3-3-3-3--5-5-5-5-5-5------------------|

e|---------------------------------------------------------------------------|
B|---------------------------------------------------------------------------|
G|---------------------------------------------------------------------------|
D|---5-5-5-5-5-5-(0)---------------------------------------------------------|
A|---7-7-7-7-7-7-(0)-5-5-5-5-5-5-(0)-7-7-7-7-7-7-5-5-5-5-5-5-----------------|
E|-------------------7-7-7-7-7-7-(0)-5-5-5-5-5-5-3-3-3-3-3-3----------[x1]---|

[Guitar 2] 
e|-----------------------------------------------7-5-------------------------|
B|-------7b(8)r7-------------------------7b(8)r7-----7b(8)r7b(8)r7-----------|
G|-7-9-7---------7-9-7-------------7-9-7-------------------------------------|
D|------------------------9b(10)r9-------------------------------------------|
A|---------------------------------------------------------------------------|
E|-------------------------------------------------------------------[x4]----|

[Guitar 3]
e |--------------------------------------------------------------------------|
B |--------------------------------------------------------------------------|
G#|--------------------------------------------------------------------------|
E |--12-12-12-12-12-12-(0)-7-7-7-7-7-7-(0)-5-5-5-5-5-5-(0)-3-3-3-3-3-3-------|
B |--12-12-12-12-12-12-(0)-7-7-7-7-7-7-(0)-5-5-5-5-5-5-(0)-3-3-3-3-3-3-------|
E |--12-12-12-12-12-12-(0)-7-7-7-7-7-7-(0)-5-5-5-5-5-5-(0)-3-3-3-3-3-3-------|

e |--------------------------------------------------------------------------|
B |--------------------------------------------------------------------------|
G#|--------------------------------------------------------------------------|
E |--12-12-12-12-12-12-(0)-7-7-7-7-7-7-(0)-5-5-5-5-5-5-(0)-3-3-3-3-3-3-------|
B |--12-12-12-12-12-12-(0)-7-7-7-7-7-7-(0)-5-5-5-5-5-5-(0)-3-3-3-3-3-3-------|
E |--12-12-12-12-12-12-(0)-7-7-7-7-7-7-(0)-5-5-5-5-5-5-(0)-3-3-3-3-3-3-------|

e |--------------------------------------------------------------------------|
B |--------------------------------------------------------------------------|
G#|--------------------------------------------------------------------------|
E |--12-12-12-12-12-12-(0)-7-7-7-7-7-7-(0)-3-3-3-3-3-3-(0)-5-5-5-5-5-5-------|
B |--12-12-12-12-12-12-(0)-7-7-7-7-7-7-(0)-3-3-3-3-3-3-(0)-5-5-5-5-5-5-------|
E |--0--0--0--0--0--0--(0)-7-7-7-7-7-7-(0)-3-3-3-3-3-3-(0)-5-5-5-5-5-5-------|

e |--------------------------------------------------------------------------|
B |--------------------------------------------------------------------------|
G#|--------------------------------------------------------------------------|
E |--12-12-12-12-12-12-(0)-7-7-7-7-7-7-(0)-5-5-5-5-5-5-(0)-3-3-3-3-3-3-------|
B |--12-12-12-12-12-12-(0)-7-7-7-7-7-7-(0)-5-5-5-5-5-5-(0)-3-3-3-3-3-3-------|
E |--12-12-12-12-12-12-(0)-7-7-7-7-7-7-(0)-5-5-5-5-5-5-(0)-3-3-3-3-3-3-------|


[Bridge]

[Guitar 1]
e|---------------------------------------------------------------------------|
B|------------------------------------------------------------------[x2]-----|
G|---------------------------------7-7-7-7-5-5-5-5-5-5-5-5-------------------|
D|-5-5-5-5-5-5-5-5-5-5-5-5-5-5-5-5-7-7-7-7-5-5-5-5-5-5-5-5-5-5-5-5--5-5-5-5--|
A|-7-7-7-7-7-7-7-7-7-7-7-7-7-7-7-7-5-5-5-5-3-3-3-3-3-3-3-3-5-5-5-5--5-5-5-5--|
E|---------------------------------------------------------3-3-3-3-\2-2-2-2--|
   "No time to get the seeds..     grow..  anything..      coming.. end.."
   "Before you put my body..       warm..  hands..         coming.. end.."

[Guitar 2]
e|-7-5---------------7-5---------------5-7-5--------------7-5----------------|
B|-----7b(8)r7b(8)r7-----7b(8)r7b(8)-7------7b(8)r7b(8)r7-----7b(8)r7b(8)r7--|
G|---------------------------------------------------------------------------|
D|---------------------------------------------------------------------------|
A|---------------------------------------------------------------------------|
E|---------------------------------------------------------------------------|

e|---------------------------------------------------------------------------|
B|------------------10-10----------------7-7-8-8-----------------------------|
G|--9-9-11-11-12-12-------12-12--7-7-9-9---------7-7-------------------------|
D|---------------------------------------------------------------------------|
A|---------------------------------------------------------------------------|
E|---------------------------------------------------------------------[x2]--|


[Post-Chorus]

This is where on the studio recording I know that guitar 3 has to be playing
the part I have down. When they play live Jesse plays guitar one and two's 
parts together and guitar 3 does nothing. 

[Guitar 3]
e |------7-----5-----5-----3--7-----5-----5-----0----------------------------|
B |--------8-----7-----7--------8-----7-----7--------------------------------|
G#|----------8-----6-----6--------8-----6-----6------------------------------|
E |--------------------------------------------------------------------------|
B |--------------------------------------------------------------------------|
E |------------------------------------------------------------------[x2]----|

[Guitar 1]
e|---------------------------------------------------------------------------|
B|--13\12-10/12-8-------------5\3-1/3-0--------------------------------------|
G|--x--x--x--x--x-----------------------0-2/4--------------------------------|
D|--10\9--7-/9--5------------------------------------------------------------|
A|---------------------------------------------------------------------------|
E|---------------------------------------------------------------------[x1]--|

[Guitar 2]
e|---------------------------------------------------------------------------|
B|------------------10/12-8--------------------------------------------------|
G|------------------x--x--x--------------------------------------------------|
D|------------------7-/9--5--------------------------------------------------|
A|---------------------------------------------------------------------------|
E|---------------------------------------------------------------------[x1]--|

[Guitar 1] "Do you miss the blend.."
e|---------------------------------------------------------------------------|
B|---------------------------------------------------------------------------|
G|--(0)------------------------------------------------------------[x8]------|
D|---5-5-5-5-5-5-(0)---------------------------------------------------------|
A|---7-7-7-7-7-7-(0)-5-5-5-5-5-5-(0)-7-7-7-7-7-7-5-5-5-5-5-5-----------------|
E|-------------------7-7-7-7-7-7-(0)-5-5-5-5-5-5-3-3-3-3-3-3-----------------|

"I am not your friend.."
e|---------------------------------------------------------------------------|
B|----------0-----------0-----------0-----------0----------------------------|
G|------0-----0-----0-----0-----0-----0-----0-----0--------------------------|
D|----5---5-------5---5-------5---5-------5---0-----5\-----------------------|
A|--7-----------5-----------3-----------2------------------------------------|
E|---------------------------------------------------------------------------|

e|---------------------------------------0~~---------------------------------|
B|----------0-----------0-----------0----0~~---------------------------------|
G|------0-----0-----0-----0-----0-----0--0~~---------------------------------|
D|----5---5-------5---5-------5---5------0~~---------------------------------|
A|--7-----------5-----------0------------0~~---------------------------------|
E|---------------------------------------0~~---------------------------------|

Tremolo Bar the hell out of these and that^^

[Guitar 2]
e|---------------------------------------x-----------------------------------|
B|---------------------------------------17~~--------------------------------|
G|---------------------------------------x-----------------------------------|
D|---------------------------------------14~~--------------------------------|
A|---------------------------------------x-----------------------------------|
E|---------------------------------------12~~--------------------------------|
[Guitar 3]
e |--------------------------------------12*~~-------------------------------|
B |--------------------------------------12*~~-------------------------------|
G#|--------------------------------------12*~~-------------------------------|
E |--------------------------------------12*~~-------------------------------|
B |--------------------------------------12*~~-------------------------------|
E |--------------------------------------12*~~-------------------------------|


[Chorus]

[Guitar 1] the progression change is still there.
e|---------------------------------------------------------------------------|
B|---------------------------------------------------------------------------|
G|---------------------------------------------------------------------------|
D|---5-5-5-5-5-5-(0)---------------------------------------------------------|
A|---7-7-7-7-7-7-(0)-5-5-5-5-5-5-(0)-7-7-7-7-7-7-5-5-5-5-5-5-----------------|
E|-------------------7-7-7-7-7-7-(0)-5-5-5-5-5-5-3-3-3-3-3-3-----------------|

e|---------------------------------------------------------------------------|
B|---------------------------------------------------------------------------|
G|---------------------------------------------------------------------------|
D|---5-5-5-5-5-5-(0)---------------------------------------------------------|
A|---7-7-7-7-7-7-(0)-5-5-5-5-5-5-(0)-7-7-7-7-7-7-5-5-5-5-5-5-----------------|
E|-------------------7-7-7-7-7-7-(0)-5-5-5-5-5-5-3-3-3-3-3-3-----------------|

e|---------------------------------------------------------------------------|
B|---------------------------------------------------------------------------|
G|---------------------------------------------------------------------------|
D|---9-9-9-9-9-9-9-----------------------------------------------------------|
A|---7-7-7-7-7-7-7--9-9-9-9-9-9-9--5-5-5-5-5-5--7-7-7-7-7-7------------------|
E|---0-0-0-0-0-0-0--7-7-7-7-7-7-7--3-3-3-3-3-3--5-5-5-5-5-5------------------|

e|---------------------------------------------------------------------------|
B|---------------------------------------------------------------------------|
G|---------------------------------------------------------------------------|
D|---5-5-5-5-5-5-(0)---------------------------------------------------------|
A|---7-7-7-7-7-7-(0)-5-5-5-5-5-5-(0)-7-7-7-7-7-7-5-5-5-5-5-5-----------------|
E|-------------------7-7-7-7-7-7-(0)-5-5-5-5-5-5-3-3-3-3-3-3-----------[x1]--|

[Guitar 2] 
e|-----------------------------------------------7-5-------------------------|
B|-------7b(8)r7-------------------------7b(8)r7-----7b(8)r7b(8)r7-----------|
G|-7-9-7---------7-9-7-------------7-9-7-------------------------------------|
D|------------------------9b(10)r9-------------------------------------------|
A|---------------------------------------------------------------------------|
E|---------------------------------------------------------------------[x4]--|

[Guitar 3]
e |--------------------------------------------------------------------------|
B |--------------------------------------------------------------------------|
G#|--------------------------------------------------------------------------|
E |--12-12-12-12-12-12-(0)-7-7-7-7-7-7-(0)-5-5-5-5-5-5-(0)-3-3-3-3-3-3-------|
B |--12-12-12-12-12-12-(0)-7-7-7-7-7-7-(0)-5-5-5-5-5-5-(0)-3-3-3-3-3-3-------|
E |--12-12-12-12-12-12-(0)-7-7-7-7-7-7-(0)-5-5-5-5-5-5-(0)-3-3-3-3-3-3-------|

e |--------------------------------------------------------------------------|
B |--------------------------------------------------------------------------|
G#|--------------------------------------------------------------------------|
E |--12-12-12-12-12-12-(0)-7-7-7-7-7-7-(0)-5-5-5-5-5-5-(0)-3-3-3-3-3-3-------|
B |--12-12-12-12-12-12-(0)-7-7-7-7-7-7-(0)-5-5-5-5-5-5-(0)-3-3-3-3-3-3-------|
E |--12-12-12-12-12-12-(0)-7-7-7-7-7-7-(0)-5-5-5-5-5-5-(0)-3-3-3-3-3-3-------|

e |--------------------------------------------------------------------------|
B |--------------------------------------------------------------------------|
G#|--------------------------------------------------------------------------|
E |--12-12-12-12-12-12-(0)-7-7-7-7-7-7-(0)-3-3-3-3-3-3-(0)-5-5-5-5-5-5-------|
B |--12-12-12-12-12-12-(0)-7-7-7-7-7-7-(0)-3-3-3-3-3-3-(0)-5-5-5-5-5-5-------|
E |--0--0--0--0--0--0--(0)-7-7-7-7-7-7-(0)-3-3-3-3-3-3-(0)-5-5-5-5-5-5-------|

e |--------------------------------------------------------------------------|
B |--------------------------------------------------------------------------|
G#|--------------------------------------------------------------------------|
E |--12-12-12-12-12-12-(0)-7-7-7-7-7-7-(0)-5-5-5-5-5-5-(0)-3-3-3-3-3-3-------|
B |--12-12-12-12-12-12-(0)-7-7-7-7-7-7-(0)-5-5-5-5-5-5-(0)-3-3-3-3-3-3-------|
E |--12-12-12-12-12-12-(0)-7-7-7-7-7-7-(0)-5-5-5-5-5-5-(0)-3-3-3-3-3-3-------|


[Outro]

[Guitar 1]
e|---------------------------------------------------------------------------|
B|------------------------------------------------------------------[x2]-----|
G|---------------------------------7-7-7-7-5-5-5-5-5-5-5-5-------------------|
D|-5-5-5-5-5-5-5-5-5-5-5-5-5-5-5-5-7-7-7-7-5-5-5-5-5-5-5-5-5-5-5-5--5-5-5-5--|
A|-7-7-7-7-7-7-7-7-7-7-7-7-7-7-7-7-5-5-5-5-3-3-3-3-3-3-3-3-5-5-5-5--5-5-5-5--|
E|---------------------------------------------------------3-3-3-3-\2-2-2-2--|
   "No time to get the seeds..     grow..  anything..      coming.. end.."
   "Before you put my body..       warm..  hands..         coming.. end.."

[Guitar 2]
e|-7-5---------------7-5---------------5-7-5--------------7-5----------------|
B|-----7b(8)r7b(8)r7-----7b(8)r7b(8)-7------7b(8)r7b(8)r7-----7b(8)r7b(8)r7--|
G|---------------------------------------------------------------------------|
D|---------------------------------------------------------------------------|
A|---------------------------------------------------------------------------|
E|---------------------------------------------------------------------------|

e|---------------------------------------------------------------------------|
B|------------------10-10----------------7-7-8-8-----------------------------|
G|--9-9-11-11-12-12-------12-12--7-7-9-9---------7-7-------------------------|
D|---------------------------------------------------------------------------|
A|---------------------------------------------------------------------------|
E|---------------------------------------------------------------------[x2]--|

[Guitar 2] Ends on                  [Guitar 1] Ends on
e|---------------------------------|-----------------------------------------|
B|---------------------------------|-----------------------------------------|
G|----------9-(let ring)-----------|-----------------------------------------|
D|---------------------------------|--5--(let ring)--------------------------|
A|---------------------------------|--7--------------------------------------|
E|---------------------------------|-----------------------------------------|


comments and feedback are always appreciated



************************************

      h - hammer on 
      p - pull off 
      b - bend string up
      r - release bend
      / - slide up
      \ - slide down
      ~ - vibrato
      x - mute note
     () - implied note
      * - natural harmonic


************************************

            
            
Suggest correction
Creating personal tab
Creating personal tab
You can edit any tab online and save it as your Personal.

You can edit, replace or remove any tab part or add personal notes – all changes will be seen only by you.

Personal tabs can be accessed anytime from any device, even offline.
Learn more »
comments
print report bad tab
12 comments total. Showing first comments.
0 reply
matt_fender_3 31 Jun 15, 2007 12:37 PM

very nice. 5 stars my friend.=]

+1 reply
AvAaron182 87 Jun 15, 2007 05:24 PM

that lead guitar doesnt have to be in open E

0 reply
SowingSeason 10 Dec 18, 2007 07:03 AM

Perfect. 5 Stars.

guest
You may want to rate the tab now too:
select rating
Wanna post a correction for this tab? Suggest correction