Oops, an error
Loading. Please wait.

Tautou tab

version 1
version 1

Whole song

Interactive

27,287 views 69 this week
8 commentsread comments
1 2 3 4 5
x 23
add to favorites
×
Save as Personal and add changes to this tab that will be seen only by you. Learn more ›
×
You can save this tab as Personal to edit and correct it or add notes. All changes will be seen only by you. Learn more »
launch autoscroll
font size
0
reset
how to read this tab
guitar tuner
edit
Autoscroll
slow
fast
+/-
esc
set tempo
stop
Song: Tautou
Artist: Brand New
Album: Deja Entendu
Tuning: Standard
Tabbed by: justin robbins

One thing to remember is that Brand New plays most of their stuff in a half-step down
tuning, so you can just move these notes all up one fret and tune your guitar down,
and youre good to go, if youre too die hard to play Brand New in standard.


Part one (0:06 - 0:18)

Theres a delay used on this, if you want to get exact

e|-------------------------------------------------------------------------|
B|-------------------------------------------------------------------------|
G|-------------------------------------------------------------------------|
D|----12h13h12-------------------------------------------------------------|
A|------------13----10-10h11-11---11/10/8/6--------------------------------|
E|-----------------------------------------6-------------------------------|


Part 2 (0:18 - 0:44)

This is from when he starts singing, to when the backup guys start singing.
very similar to the part before it.

e|---------------------|---------------------------------------------------|
B|---------------------|---------------------------------------------------|
G|---------------------|---------------------------------------------------|
D|---13-12-10-8--(x2)--|---------------------------------------------------|
A|---------------------|---10-10h11-11--11-11-11---8-8h10-10---------------|
E|---------------------|---------------------------------------------------|


Part 3 (0:45 - end)

This is the final part of the song that fades out of the song over time.
Listen for what chord to scale at what time. The (weak) bass kind of makes the third
time you play the first scale sounds like it should go lower, but if you listen closely
that actual guitar tune stays the same until the seventh time you play it. It only does
the second one twice. After doing this part, there is some stuff that seems like they
just played with and effects pedal and used vibrato and distortion or something...if you
wanna figure it out go ahead.

e|----------------|-----------------|--------------------------------------|
B|------4---------|------3----------|------4-------------------------------|
G|----5--5---(x6)-|----4--4----(x2)-|----5--5-----(Until end)--------------|
D|---5-5--5-------|---4-4--4--------|---5-5--5-----------------------------|
A|--3------3------|--2------2-------|--3------3----------------------------|
E|----------------|-----------------|--------------------------------------|

Im sure this is 100 percent accurate, factoring in tuning differentials. Im also sure
this is the easiest way to play it, and after all its meant to be short and easy. Like
i mentioned theres some effect pedal nonsense you can try out for yourself if you want.
Thats about it, hope this helps you.

Suggest correction
Creating personal tab
Creating personal tab
You can edit any tab online and save it as your Personal.

You can edit, replace or remove any tab part or add personal notes – all changes will be seen only by you.

Personal tabs can be accessed anytime from any device, even offline.
Learn more »
comments
print report bad tab
8 comments total. Showing first comments.
+1 reply
the_revenant 10 Dec 31, 2005 11:54 PM

Dude, this is perfect. Great tab for a beautiful song=)

+2 reply
SaintJimmy105 341 Dec 24, 2006 06:55 PM

There is one part thats wrong.

Where you play the Cm, you play that, but then you have to switch the lowest note in it to G# twice through it.

I hope you get what I'm saying.

0 reply
lastlivingboy 10 May 23, 2007 07:56 PM

Just so you know. Brand New plays everything a half step down. Yeah.

guest
You may want to rate the tab now too:
select rating
Wanna post a correction for this tab? Suggest correction