Oops, an error
Loading. Please wait.

Tautou tab

version 2
version 2

Whole song

Interactive

2,008 views 1 this week
no commentswrite comment
1 2 3 4 5
x 3
add to favorites
×
Save as Personal and add changes to this tab that will be seen only by you. Learn more ›
×
You can save this tab as Personal to edit and correct it or add notes. All changes will be seen only by you. Learn more »
launch autoscroll
font size
0
reset
how to read this tab
guitar tuner
edit
Autoscroll
slow
fast
+/-
esc
set tempo
stop
Author
Difficulty
Brand New -- Tautou
Tuning: Drop half step down...
Tabbed by: glazeglaze

I like this song a lot. Very simple very easy.

(0:06 - 0:18)

Some effect -- figure out w/ a pedal or something. JUST LISTEN

eb|------------------------------------------------------------------------|
Bb|------------------------------------------------------------------------|
Gb|------------------------------------------------------------------------|
Db|----11-12h11------------------------------------------------------------|
Ab|------------12----9-9h10-10---10/9-/7-/5--------------------------------|
Eb|-------------------------------------------5----------------------------|

(0:18 - 0:44)

Singing comes in.

eb|---------------------|---------------------------------------------------|
Bb|---------------------|---------------------------------------------------|
Gb|---------------------|---------------------------------------------------|
Db|---12-11-9-7--(x2)---|---------------------------------------------------|
Ab|---------------------|---9-9h10-10--10-10-10---7-7h9-9-------------------|
Eb|---------------------|---------------------------------------------------|

(0:45 - end)
Picking

 Easy to just bar 2nd fret and slide to 1st fret --> easy to figure out.
eb|----------------|-----------------|--------------------------------------|
Bb|------3---------|------2----------|------3-------------------------------|
Gb|----4--4---(x6)-|----3--3----(x2)-|----4--4-----(x4 w/ fade)-------------|
Db|---4-4--4-------|---3-3--3--------|---4-4--4-----------------------------|
Ab|--2------2------|--1------1-------|--2------4----------------------------|
Eb|----------------|-----------------|--------------------------------------|


--Will get you laid =]

            
            
Suggest correction
Creating personal tab
Creating personal tab
You can edit any tab online and save it as your Personal.

You can edit, replace or remove any tab part or add personal notes – all changes will be seen only by you.

Personal tabs can be accessed anytime from any device, even offline.
Learn more »
Give kudos to tab author, rate the tab!
1 2 3 4 5
comments
print report bad tab
guest
You may want to rate the tab now too:
select rating
Wanna post a correction for this tab? Suggest correction