Oops, an error
Loading. Please wait.

Tautou tab

version 7
version 7

Whole song

Interactive

349 views 9 this week
1 commentread comment
1 2 3 4 5
x 3
add to favorites
×
Save as Personal and add changes to this tab that will be seen only by you. Learn more ›
×
You can save this tab as Personal to edit and correct it or add notes. All changes will be seen only by you. Learn more »
launch autoscroll
font size
0
reset
how to read this tab
guitar tuner
edit
Autoscroll
slow
fast
+/-
esc
set tempo
stop
About this tab version
My tab follows Brand New's way of playing the song more closely and has more accurate notes. Was this info helpful? Yes No
-------------------------------------------------------------------------------
                             TAUTOU - Brand New
-------------------------------------------------------------------------------
Album: Deja Entendu
Year: 2003
Tuning: Eb standard

Tabbed by:911tommyshana

-reverb is used throughout the song
-using fingers instead of a pick gives it a quieter sound like in the recording

0:00-0:18
Beginning of song comes in very soft and can be hard to hear
eb|--------------------------------------------------|
Bb|--------------------------------------------------|
Gb|----8h9p8-----------------------------------------|
Db|----------9~~-----6/7~~--7\6-6\4-4\2-2------------|
Ab|---------------------------------------2~~--------|
Eb|--------------------------------------------------|

0:18-0:44
Singing comes in here
eb|-------------------------------------------------------------------------|
Bb|-------------------------------------------------------------------------|
Gb|----9-8-------------9-8--------------------------------------------------|
Db|----------11-9~~----------11-9~~\6-6/7-7~~--7~~-7-7\4-4/6-6~~------------|
Ab|-------------------------------------------------------------------------|
Eb|-------------------------------------------------------------------------|

0:44-0:57
eb|-----------------------|-----------------------|
Bb|------------5----------|------------5----------|
Gb|--------6-----6---6----|--------6-----6---6----|
Db|------6---6-----6------|------6---6-----6------|
Ab|----4-------------(2x)-|------------------(2x)-|
Eb|-----------------------|----5------------------|

0:57-1:10
eb|-----------------------|-----------------------|
Bb|------------5----------|------------4----------|
Gb|--------6-----6---6----|--------6-----6---6----|
Db|------6---6-----6------|------6---6-----6------|
Ab|----4-------------(2x)-|------------------(2x)-|
Eb|-----------------------|----5------------------|

1:10-1:17                1:17-1:42
eb|-----------------------|---------------------|
Bb|------------5----------|----5-5--------------|
Gb|--------6-----6---6----|----6-6--(fade out)--|
Db|------6---6-----6------|----6-6--------------|
Ab|----4-------------(2x)-|----4-4--(7x)--------|
Eb|-----------------------|---------------------|



************************************

| /   slide up
| \   slide down
| h   hammer-on
| p   pull-off
| ~   vibrato
| b   Bend

************************************

            
            
Suggest correction
Creating personal tab
Creating personal tab
You can edit any tab online and save it as your Personal.

You can edit, replace or remove any tab part or add personal notes – all changes will be seen only by you.

Personal tabs can be accessed anytime from any device, even offline.
Learn more »
Give kudos to tab author, rate the tab!
1 2 3 4 5
comments
print report bad tab
1 comment total.
+1 reply
vorzul 10 Jul 21, 2015 09:04 AM

Great tab! Fits the song perfectly!

guest
You may want to rate the tab now too:
select rating
Wanna post a correction for this tab? Suggest correction