Oops, an error
Loading. Please wait.

The Boy Who Blocked His Own Shot tab

version 4
version 4

Whole song

Interactive

4,889 views 6 this week
no commentswrite comment
1 2 3 4 5
x 5
add to favorites
×
Save as Personal and add changes to this tab that will be seen only by you. Learn more ›
×
You can save this tab as Personal to edit and correct it or add notes. All changes will be seen only by you. Learn more »
launch autoscroll
font size
0
reset
how to read this tab
guitar tuner
edit
Autoscroll
slow
fast
+/-
esc
set tempo
stop
Author
Listen For Strumming Patterns. 
      

Gtr I(Eb Ab Db Gb Bb Eb)
Gtr II(Eb Ab Db Gb Bb Eb)
    
Acoustic Part

Eb|--3-----3----3----3----3--3----3---\
Bb|--3-----1----0----3----3--3----3--- \
Gb|--0-----0----0----2----0--0----0---  \
Db|--0-----0----0----0----0--4----2---  / Let it ring for 8 counts
Ab|--2-----2----0----0----0--0----3--- /
Eb|--3-----3----3----0----0--0----x---/

Play This Acoustic Part throughout the song...


Electric Guitar

This guitar part is random throughout the song, try to use a flanger/w a little distortion.

Im not gonna time it out..so listen to it and put these fills in.
This is mainly the chorus but doesnt sound to bad throughout the song.
  Chorus
Eb|----------7777755555555555555-----------------------77777------
Bb|--88888888--------------------8888888-777777---55555------55555
Gb|---------------------------------------------------------------
Db|---------------------------------------------------------------
Ab|---------------------------------------------------------------
Eb|---------------------------------------------------------------



Thats it...if u have any questions e mail me at tmony1590@aol.com






            
            
Suggest correction
Creating personal tab
Creating personal tab
You can edit any tab online and save it as your Personal.

You can edit, replace or remove any tab part or add personal notes – all changes will be seen only by you.

Personal tabs can be accessed anytime from any device, even offline.
Learn more »
comments
print report bad tab
guest
You may want to rate the tab now too:
select rating
Wanna post a correction for this tab? Suggest correction