Oops, an error
Loading. Please wait.

The No Seatbelt Song tab

version 3
version 3

Interactive

11,086 views 42 this week
6 commentsread comments
1 2 3 4 5
x 6
add to favorites
×
Save as Personal and add changes to this tab that will be seen only by you. Learn more ›
×
You can save this tab as Personal to edit and correct it or add notes. All changes will be seen only by you. Learn more »
launch autoscroll
font size
0
reset
how to read this tab
guitar tuner
edit
Autoscroll
slow
fast
+/-
esc
set tempo
stop
Author
Rythm Guitar uses Acustic Guitar
Lead Guitar uses Electric Guitar


Intro/verse

    Rythm Guitar
 E[----------------------------------------------------------]
 B[----------------------------------------------------------]
 G[----------------------------------------------------------]
 D[-5555555588888888-----------------------------------------]
 A[-33333333666666663333333366665555888888886666666688888885-]
 E[-----------------1111111144443333666666664444444466666664-]
pm..........................................................

   LEAD GUITAR
E[-------------------------------------------------------------------------]
B[-------------------------------------------------------------------------]
G[-------10--------6----------10----------6--------8--------6-------8------]
D[----10----10---6---6------10---10-----6---6----8---8----6---6----8--8--8~]
A[--10----------6----------10----------6--------8--------6--------8------6~]
E[10-----------6---------10-----------6--------8--------6--------8-------6~]


Chorus

   Rythm Guitar
E[------------------------------------------------]
B[------------------------------------------------]
G[-55555555-88888888-55555555-88888888-----8888---]
D[-55555555-88888888-55555555-88888888-----8888-6~]
A[-33333333-66666666-33333333-66666666-----5555-6~]
E[----------------------------------------------4~]
   {================x2================}     

LEAD GUITAR
E-----4--------4----------7--7------7--------]
B-------4--------4------7-------7------------]
G---6--------6--------9-----------9----------]
D-6--------6--------9----------------------8~]
A------------------------------------------6~]
E------------------------------------------6~]



Bridge

   Rythm Guitar
E[---------]
B[---------]
G[---------]
D[-88888888]
A[-88888888]
E[-66666666]  used repeatedly
PM.........

LEAD GUITAR
   USED ONLY BEFORE INTERLUDE
E--11--------------11------12------11-----11--14----------11-12-14-12-]
B----12--------------12--------------12----------14-12-14-------------]
G-13~-------------13~---11-------13~----11--------13~-----------------]
D-13~-------------13~------------13~--------------13~-----------------]
A-11~-------------11~------------11~--------------11~-----------------]
E-11~-------------11~------------11~--------------11~-----------------]
       [Rythm]         [Rythm]         [Rythm]        [Rythm]

interlude: electric guitar
E-------------------------------------------------------------------------]
B-------------------------------------------------------------------------]
G-------------------------------------------------------------------------]
D----------------2-2---2----2--------1-----1---------------------44444444-]
A-4-4-2-4--2-4-2-----4----4---4--2-2---2--2--2--0-0-2-0--0-2-0---44444444-]
E----------------------------------------------------------------22222222-]
{=============================x2===============================}PM.....

outro
E----------------]
B----------------]
G----------------]
D-8------10------]
A-8------10------]
E-6-------8------]


ORDER..... RYTHM GUITAR

INTRO................X1
VERSE...............X2
CHORUS............X2
PRE-VERSE......X1
VERSE...............X2
CHORUS...........X4
PRE-VERSE.....X8
BRIDGE.............X1
INTERLUDE..... X2
PRE-VERSE.....X1
CHORUS..........X6
OUTRO.............X1

LRYRICS

So, it's sad that doesn't suit you now.
And me fresh out of rope...
Please ignore this lisp, I never meant to sound like this.
So take me and break me and make me strong like you.
I'll be forever grateful to this and you.
It's only you, beautiful.
Or I don't want anyone.
If I can choose it's only you.
Fix me to a chain around your neck and wear me like a nickel.
Even new wine served in old skins will cheapen the taste.
I shot the pilot, now I'm begging you to fly this for me.
I'm here for you to use, broken and bruised.
Do you understand?
It's only you, beautiful.
Or don't want anyone.
If I can choose, it's only you.
But how could I miscalculate... perfect eyes will have perfect hate.
If I can choose, it's only you.
"We're wrecking" and I'm dry like a drum...
so fine I'll leave... we're spent... take our time...
measured... we slave for days.
It's only you, beautiful.
Or I don't want anyone.
If I can choose. It's only you.
But how could I miscalculate... perfect lies from a perfect hate.
If I can choose... it's only you.

            
            
Suggest correction
Creating personal tab
Creating personal tab
You can edit any tab online and save it as your Personal.

You can edit, replace or remove any tab part or add personal notes – all changes will be seen only by you.

Personal tabs can be accessed anytime from any device, even offline.
Learn more »
comments
print report bad tab
6 comments total. Showing first comments.
0 reply
$hab 687 May 20, 2005 08:00 PM

Perfect eyes will have perfect aim...
...perfect eyes from a perfect dame.

0 reply
Knife2aGunFight 130 Feb 22, 2006 11:34 AM

Guitar 2 is just wrong during the verse, don't know abou the rest.

0 reply
glazeglaze 116 Aug 31, 2006 06:54 PM

Even new wine served in old skins will cheapen the taste.

but really -----------------------cheapens the taste.

dont matter w/ the tab

guest
You may want to rate the tab now too:
select rating
Wanna post a correction for this tab? Suggest correction