Oops, an error
Loading. Please wait.
We have an official The Quiet Things That No One Ever Knows tab made by UG professional guitarists. Check out the tab »
×
15,516 views 12 this week
9 commentsread comments
1 2 3 4 5
x 16
add to favorites
×
Save as Personal and add changes to this tab that will be seen only by you. Learn more ›
×
You can save this tab as Personal to edit and correct it or add notes. All changes will be seen only by you. Learn more »
launch autoscroll
font size
0
reset
guitar tuner
backing track
0:00
0:00
edit
Autoscroll
slow
fast
+/-
esc
set tempo
stop
Brand New
The Quiet Things That No One Ever Knows
Deja Entendu

Tabbed by Jason "Suicide Machine"

Intro
during the guitar intro play first note and let ring

-------------------------------------------------------
-----------------------------------------0*------------
-----------------------------0*------------------------ x2
-----3*-----------0*-----------------------------------    

-------------------------------------------------------
-------------------------------------------------------
-------------------------------------------------------
33333333333333330000000000000000-----------------------

-------------------------------------------------------
-------------------------------------------------------
-33333333333333335555555555555555----------------------
-------------------------------------------------------

Verse
---------------------------------------------------------
---------------------------------------------------------
----------------------------------------3333333333333333-
3-3-8/3-33333333333333333--------------------------------

-------------------------------------------------------
-------------------------------------------------------
----------------------------333333333333333------------
0000000000000000---------------------------------------

Chorus
-------------------------------------------------------
-------------------------------------------------------
-------------------------------------------------------
-33333333333333330000000000000000----------------------

-------------------------------------------------------
-------------------------------------------------------
-33333333333333335555555555555555----------------------  x2
-------------------------------------------------------

Verse
---------------------------------------------------------
---------------------------------------------------------
----------------------------------------3333333333333333-
3-3-8/3-33333333333333333--------------------------------

-------------------------------------------------------
-------------------------------------------------------
----------------------------3333333333333333-----------
0000000000000000---------------------------------------

Chorus
-------------------------------------------------------
-------------------------------------------------------
-------------------------------------------------------
-33333333333333330000000000000000----------------------

-------------------------------------------------------
-------------------------------------------------------
-33333333333333335555555555555555----------------------  x2
-------------------------------------------------------

Bridge
-------------------------------------------------------
-----------------------------------------0*------------
-----------------------------0*------------------------  x2
-----3*-----------0*-----------------------------------

-------------------------------------------------------
-------------------------------------------------------
-------------------------------------------------------   
-33333333333333330000000000000000----------------------

-------------------------------------------------------
-------------------------------------------------------
-33333333333333335555555555555555----------------------  x2
-------------------------------------------------------

Chorus
-------------------------------------------------------
-------------------------------------------------------
-------------------------------------------------------   
-33333333333333330000000000000000----------------------

-------------------------------------------------------
-------------------------------------------------------
-33333333333333335555555555555555----------------------
-------------------------------------------------------  x2

and thats how you play it. it sounds right, it matches both
the guitar riffs and what you see Vin playing in the video.

.Jason

            
            
Suggest correction
Creating personal tab
Creating personal tab
You can edit any tab online and save it as your Personal.

You can edit, replace or remove any tab part or add personal notes – all changes will be seen only by you.

Personal tabs can be accessed anytime from any device, even offline.
Learn more »
comments
print report bad tab
9 comments total. Showing first comments.
0 reply
TheMushroomClub 80 Jul 28, 2004 08:00 PM

Your intro is wrong.....

+1 reply
element_33 10 Jan 02, 2006 12:53 PM

its,
------------------
----------0-------
-------3----------
-3--0-------------

0 reply
jason danger 31 Mar 27, 2007 08:23 PM

yeah, i made this a long time ago, this is the correction.

intro is

------------------
----------0-------
-------3----------
-3--0-------------

guest
You may want to rate the tab now too:
select rating
Wanna post a correction for this tab? Suggest correction