Oops, an error
Loading. Please wait.

The Shower Scene bass

version 2
version 2

Whole song

Interactive

786 views 3 this week
1 commentread comment
1 2 3 4 5
2 more votes to show rating
add to favorites
×
Save as Personal and add changes to this tab that will be seen only by you. Learn more ›
×
You can save this tab as Personal to edit and correct it or add notes. All changes will be seen only by you. Learn more »
launch autoscroll
font size
0
reset
guitar tuner
edit
Autoscroll
slow
fast
+/-
esc
set tempo
stop
Band: Brand New
Album: Your Favorite Weapon
Song: The Shower Scene
Track: 1

Tabbed by: safetyinnumbers(Dany)
Tuning: Half-step down Eb,Ab,Db,Gb or D#,G#,C#,F#

I'm not quite sure how correct this is, but I feel it's more accurate than the other tabs I've seen.

 /  slide up
 \  slide down
 h  hammer-on
 p  pull-off
 ~  vibrato
 x  mute

Intro
No Singing
Gb---------------------------------------------------------------|
Db---------------------------------------------------------------|
Ab---------5-555555---------5-555555--------5-5555555------------| X 1
Eb-2-2-222----------2-2-222-----------2-222-----------0-0-000-2~-|

Verse
"It's funny how your worst enemies always seem to turn out to be all your best friends."
Gb----------------------------------------------------------------------|
Db----------------------------------------------------------------------|
Ab---------5-555555---------5-555555--------5-5555555-------------------| X 2
Eb-2-2-222----------2-2-222-----------2-222-----------0-0-000-222222222-|

Chorus
"It's time for you to choose the bullet or the chapstick."
Gb----------------|
Db----------------|
Ab----------------| X 1
Eb-5~-3~-5~-1~-\5-|

Verse
"Every time I hear it I am wishing I was great, I wish her...past tense my best friend."
Gb----------------------------------------------------------------------|
Db----------------------------------------------------------------------|
Ab---------5-555555---------5-555555--------5-5555555-------------------| X 1
Eb-2-2-222----------2-2-222-----------2-222-----------0-0-000-222222222-|

Gb----------------------------------------------------------------------|
Db----------------------------------------------------------------------|
Ab---------5-555555---------5-555555--------5-5555555-------------------| X 1
Eb-2-2-222----------2-2-222-----------2-222-----------0-0-000-2-2-2-2-2-|

Chorus
"It's time for you to choose the bullet or the chapstick."
Gb-----------------------------------------------|
Db-----------------------------------------------|
Ab-----------------------------------------------| X 1
Eb-55555555-333333333-555555555-1111111111111111-|

Bridge
"Bullet or the chapstick. And you are far too cute or whatever he said."
Gb-------------------------------|
Db-------------------------------|
Ab-------------------------------| X 1
Eb-5555555555-33333333-555555555-|
"This is me in his room."
Gb----------------------------------------------------------------|
Db----------------------------------------------------------------|
Ab----------------------------------------------------33333333333-| X 1
Eb-1-11-1-11-1-11--3-33-3-33-3-33-5-55-5-55-5-55-5-55-------------|

Gb------------------I---------------------I-----------------------.)     (Watch the timing on this
Db------------------I---------------------I-----------------------.)      part. I'm not quite sure
Ab-(very short rest)I--4-4---3-4-4---3-3--I X 4  if this is right-.)
Eb------------------I-2-2-1-1-2-2-1-1-1---------------------------.)I

"Red, gold, I told. We don't play fair." "So I update this every single day for you."
Gb------------------I----I     I----------------------------------------|
Db------------------I----I     I----------------------------------------|
Ab-(Very short rest)I-5-5I X 1 I-----------55555555----------5555555555-| X 2
Eb------------------I----I     I-222222222----------22222222------------|

Outro
No singing
Gb---------------------|
Db---------------------|
Ab---------------------|
Eb-2222--2222--2222-5~-|

            
            
Suggest correction
Creating personal tab
Creating personal tab
You can edit any tab online and save it as your Personal.

You can edit, replace or remove any tab part or add personal notes – all changes will be seen only by you.

Personal tabs can be accessed anytime from any device, even offline.
Learn more »
Give kudos to tab author, rate the tab!
1 2 3 4 5
comments
print report bad tab
1 comment total.
0 reply
Phendranah 10 Sep 27, 2016 01:40 AM

Sounds pretty good from what I've played

guest
You may want to rate the tab now too:
select rating
Wanna post a correction for this tab? Suggest correction