Oops, an error
Loading. Please wait.

Untitled 02 tab

version 1
version 1

Whole song

9,104 views 9 this week
10 commentsread comments
1 2 3 4 5
x 5
add to favorites
×
Save as Personal and add changes to this tab that will be seen only by you. Learn more ›
×
You can save this tab as Personal to edit and correct it or add notes. All changes will be seen only by you. Learn more »
launch autoscroll
font size
0
reset
how to read this tab
guitar tuner
edit
Autoscroll
slow
fast
+/-
esc
set tempo
stop
Author
Unregistered
Band : Brand New
Song : Untitled 02
Album: New Album Demos 2006
Tabbed By: Calum (afirock74@hotmail.com)
Tuning: Half step down 

x   - Palm Mute
b   - Bend
b~  - Bend Up Then Down
h   - Hammer-On Directly After Note Before

Intro:
eb|-----------0---------------------9--------------------0---------9--|
Bb|---------12--12----------------12-12----------------12-12-------12-|
Gb|--------9------9--------------9-----9--------------9-----9------9--|
Db|---11--11-------11-------11--11------11-------11--11------11----11-|
Ab|------------------------0------------------------------------------|
Eb|--9------------------------------------------9---------------------|
     x                                                  x

Verse:
eb|---------------------------------------9------|
Bb|---------------------------------9-------9----|
Gb|-8---------8----9---8---------9-9-9--9-----9--|
Db|---11--9-----11-------11--9-------------------|
Ab|----------------------------------------------|
Eb|----------------------------------------------|

Chorus:
eb|------------------------------4-4-4-4-4-----------4-4-4-4-------------------|
Bb|-5-5-5-5--4-4-4-4----------7--5-5-5-5-5--5-5-5-5--5-5-5-5-------------------|
Gb|-x-x-x-x--6-6-6-6--9-9-9-9-6--6-6-6-6-6--x-x-x-x--4-4-4-4--9-9-9-9-9-9-9-9--|
Db|-x-x-x-x--x-x-x-x--9-9-9-9-7--6-6-6-6-6--x-x-x-x--4-4-4-4--9-9-9-9-9-9-9-9--|
Ab|-4-4-4-4--6-6-6-6--7-7-7-7-6--4-4-4-4-4--4-4-4-4--6-6-6-6--7-7-7-7-7-7-7-7--|
Eb|-2-2-2-2--4-4-4-4------------------------2-2-2-2--4-4-4-4-------------------|

eb|------------------------------4-4-4-4-4-----------4-4-4-4-------------------|
Bb|-5-5-5-5--5-5-5-5----------7--5-5-5-5-5--7-7-7-7--5-5-5-5-------------------|
Gb|-x-x-x-x--x-x-x-x--9-9-9-9-6--6-6-6-6-6--6-6-6-6--x-x-x-x--9-9-9-9-9-9-9-9--|
Db|-x-x-x-x--6-6-6-6--9-9-9-9-7--6-6-6-6-6--7-7-7-7--4-4-4-4--9-9-9-9-9-9-9-9--|
Ab|-4-4-4-4--6-6-6-6--7-7-7-7-6--4-4-4-4-4--6-6-6-6-----------7-7-7-7-7-7-7-7--|
Eb|-2-2-2-2--4-4-4-4-----------------------------------------------------------|

Verse 2 Riff:
eb|-------------------------|--------------------11---------------|
Bb|-------------------------|--9------12-13^---12--12-----12-13^--|
Gb|--4------------2/4-2--1--|-------------------------------------|
Db|------------2/4----------|-------------------------------------|
Ab|-------2-2/4-------------|-------------------------------------|
Eb|-------------------------|-------------------------------------|

Solo:
eb|-------------------|--------------------------------|
Bb|-------5-------5-0-|-99-77---7-5---99-77---99-77----|
Gb|-4/6-6--x-4/6-6----|------6-------------6-------6---|
Db|-------------------|--------------------------------|
Ab|-------------------|--------------------------------|
Eb|-------------------|--------------------------------|

Bridge:
eb|-4-4-4-4-4-4-4-4-4--2-2-2-2-2-2-2-2-2--4-4-4-4-4-4-4-4-4--5-5-5-5-5-5-5-5--|
Bb|-5-5-5-5-5-5-5-5-5--5-5-5-5-5-5-5-5-5--5-5-5-5-5-5-5-5-5--5-5-5-5-5-5-5-5--|
Gb|-6-6-6-6-6-6-6-6-6--4-4-4-4-4-4-4-4-4--4-4-4-4-4-4-4-4-4--5-5-5-5-5-5-5-5--|
Db|-6-6-6-6-6-6-6-6-6--4-4-4-4-4-4-4-4-4--6-6-6-6-6-6-6-6-6--7-7-7-7-7-7-7-7--|
Ab|-4-4-4-4-4-4-4-4-4--2-2-2-2-2-2-2-2-2--6-6-6-6-6-6-6-6-6--7-7-7-7-7-7-7-7--|
Eb|---------------------------------------4-4-4-4-4-4-4-4-4--5-5-5-5-5-5-5-5--|

            
            
Suggest correction
Creating personal tab
Creating personal tab
You can edit any tab online and save it as your Personal.

You can edit, replace or remove any tab part or add personal notes – all changes will be seen only by you.

Personal tabs can be accessed anytime from any device, even offline.
Learn more »
comments
print report bad tab
10 comments total. Showing first comments.
0 reply
thegreatindoors 41 Feb 21, 2006 02:38 AM

where can i find these demos?

0 reply
SaintJimmy105 341 Feb 21, 2006 10:25 AM

yeah really, where did you hear these?

0 reply
Knife2aGunFight 130 Feb 21, 2006 11:00 AM

I hate to say I don't think this sounds quite right, it might be the effect they have, but I don't think this sounds quite right, at least the intro.

guest
Wanna post a correction for this tab? Suggest correction