Oops, an error
Loading. Please wait.

Untitled 03 tab

version 2
version 2

Whole song

9,434 views 3 this week
5 commentsread comments
1 2 3 4 5
x 6
add to favorites
×
Save as Personal and add changes to this tab that will be seen only by you. Learn more ›
×
You can save this tab as Personal to edit and correct it or add notes. All changes will be seen only by you. Learn more »
launch autoscroll
font size
0
reset
how to read this tab
guitar tuner
edit
Autoscroll
slow
fast
+/-
esc
set tempo
stop
Author
Difficulty
Main Riff
E|------------------------------------|
B|------------------------------------|
G|------------------------------------|
D|-10--10-----10----------------------|
A|-10--10-10-----10-10--8--8-8-7--5-5-|
E|-8---8--0---------0---5--5-5-5--3-3-|

Pre-chorus (Because tonight we got drinks/And now with the war...)
F5 - A5 - G5 x3
F5 - G5

Chorus Pt. 1 (Wake up...)
C - A - G x2

Chorus Pt. 2 (Lying like lions...)
F5[2] - C5 - A5 - F5[2] - A5 - G5

Chords:
  F5  A5  G5   C   A   G  F5[2]
E|---|---|---|-0-|-0-|-3-|----|
B|---|---|---|-1-|-x-|-3-|----|
G|---|-2-|---|-0-|-2-|-0-|-10-|
D|-3-|-2-|-5-|-2-|-2-|-0-|-10-|
A|-3-|-0-|-5-|-3-|-0-|-2-|-8--|
E|-1-|---|-3-|---|---|-3-|----|

            
            
Suggest correction
Creating personal tab
Creating personal tab
You can edit any tab online and save it as your Personal.

You can edit, replace or remove any tab part or add personal notes – all changes will be seen only by you.

Personal tabs can be accessed anytime from any device, even offline.
Learn more »
comments
print report bad tab
5 comments total. Showing first comments.
0 reply
Nuke2033 10 May 16, 2006 08:53 AM

should be :

Main Riff
E|------------------------------------|
B|------------------------------------|
G|------------------------------------|
D|-10--9------10----------------------|
A|-10--10-10-----10-10--8--8-8-7--5-5-|
E|-8---8--0---------0---5--5-5-5--3-3-|

Also, in the chorus the A is really Am
peace

0 reply
glazeglaze 116 Jun 03, 2006 06:47 PM

what's the strumming pattern? i can't pick it up

0 reply
glazeglaze 116 Jun 07, 2006 04:13 PM

what is c 5?

guest
You may want to rate the tab now too:
select rating
Wanna post a correction for this tab? Suggest correction