Oops, an error
Loading. Please wait.

Welcome To Bangkok tab

version 2
version 2

Whole song

Interactive

594 views 15 this week
no commentswrite comment
1 2 3 4 5
3 more votes to show rating
add to favorites
×
Save as Personal and add changes to this tab that will be seen only by you. Learn more ›
×
You can save this tab as Personal to edit and correct it or add notes. All changes will be seen only by you. Learn more »
launch autoscroll
font size
0
reset
how to read this tab
guitar tuner
edit
Autoscroll
slow
fast
+/-
esc
set tempo
stop
Author
Difficulty
-------------------------------------------------------------------------------
                             WELCOME TO BANGKOK - Brand New
-------------------------------------------------------------------------------
Album: The Devil and God Are Raging Inside Me
Tabbed by:Tjlax03
E-mail:Tjlax03@gmail.com

The other tab for this song was pretty bad so I made a completely new one.

Tuning:Standard

INTRO
These are the Acoustic Guitar Chords. You can figure out the rhythm yourself.
e|--0---0---|
B|--0---0---|
G|--4---4---|x2
D|--2---0---|
A|--2---x---|
E|--0---3---|

e|--0---0---|
B|--0---0---|
G|--4---4---|
D|--2---2---|
A|--2---3---|
E|--0---0---|

e|--0---0---|
B|--0---0---|
G|--4---4---|x2
D|--2---0---|
A|--2---x---|
E|--0---3---|

e|--0---0---|
B|--0---0---|
G|--4---4---|
D|--2---2---|
A|--2---3---|
E|--0---0---|


The Lead Guitar comes in at (0:58) playing this part:
e|-----------------------|
B|-----------------------|
G|-----------------------|  x2
D|-----------------------|
A|--/12--/12--/10--/10---|
E|-----------------------|
Then the lead plays this:
e|-----------------|
B|-----------------|
G|-----------------|
D|-----------------|
A|--/7--/7--/10----|
E|-----------------|





THE DROP (1:34)
Rhythm Guitar plays this for the rest of the song
e|---------------------------------------------------------------------|
B|---------------------------------------------------------------------|
G|--9-9-9-9-9-9-9-9-9-9-9-9-9-9-9-9-4-4-4-4-4-4-7-7-7-7-7-7-7-7-7-7----|
D|--9-9-9-9-9-9-9-9-9-9-9-9-9-9-9-9-4-4-4-4-4-4-7-7-7-7-7-7-7-7-7-7----|
A|--7-7-7-7-7-7-7-7-7-7-7-7-7-7-7-7-2-2-2-2-2-2-5-5-5-5-5-5-5-5-5-5----|
E|---------------------------------------------------------------------|

Lead Guitar A
e|---------------------------------|
B|---------------------------------|
G|---------------------------------| x2
D|---------------------------------|
A|-/12--/12b13----/12--/10--(10)---|
E|---------------------------------|
Play until the end
e|--12-12-14-14-12-15-15-12-17-17-17-12-15-15-15-12--|
B|---------------------------------------------------|
G|---------------------------------------------------|
D|---------------------------------------------------|
A|---------------------------------------------------|
E|---------------------------------------------------|

Lead Guitar B
e|-------------------------------|
B|-------------------------------|
G|-/16--/16b17----/16--/12--12---|
D|-------------------------------|x2
A|-------------------------------|
E|-------------------------------|
Play until the end
e|-0-0-2-2-0-3-3-0-5-5-5-0-3-3-3-0---|
B|-----------------------------------|
G|-----------------------------------|
D|-----------------------------------|
A|-----------------------------------|
E|-----------------------------------|


************************************

| /   slide up
| \   slide down
| h   hammer-on
| p   pull-off
| ~   vibrato
| +   harmonic
| x   Mute note
| b   Bend
| pb  Pre-bend
| br  Bend release
| pbr Pre-bend release
| brb Bend release bend

************************************

            
            
Suggest correction
Creating personal tab
Creating personal tab
You can edit any tab online and save it as your Personal.

You can edit, replace or remove any tab part or add personal notes – all changes will be seen only by you.

Personal tabs can be accessed anytime from any device, even offline.
Learn more »
Give kudos to tab author, rate the tab!
1 2 3 4 5
comments
print report bad tab
guest
You may want to rate the tab now too:
select rating
Wanna post a correction for this tab? Suggest correction