Oops, an error
Loading. Please wait.

You Stole tab

version 1
version 1

Whole song

Interactive

16,680 views 24 this week
1 commentread comment
1 2 3 4 5
x 6
add to favorites
×
Save as Personal and add changes to this tab that will be seen only by you. Learn more ›
×
You can save this tab as Personal to edit and correct it or add notes. All changes will be seen only by you. Learn more »
launch autoscroll
font size
0
reset
how to read this tab
guitar tuner
edit
Autoscroll
slow
fast
+/-
esc
set tempo
stop
Tuning: Standard
/=slide

Intro and most of the song

--------------------88-----88-----88---------|
--------------------88-----55-----66---------|
---------------------------------------------|
----7-------7--------------------------------|
----8-x8----0-x3-----------------------------|
---------------------------------------------|

Chorus some progression like this just listen

-----------------------------------------|
-----------------------------------------|
-----------------------------------------|
----7------5-----10----------------------|
----7------5-----10----------------------|
----5------3------8----------------------|

When it starts to pick up and get harder. Strum this

---------------------------------------------|
------------------10-------------------------|
------------9------x-------------------------|
---7--------7------7-------------------------|
---8-x8-----0-x8---0-------------------------|
---------------------------------------------|
                   ^   It does this part at some point in the hard part

Little Solo

---------------------------------------------|
-8--10--8--10--8--10--8-/-13--repeat x3------|
---------------------------------------------|
---------------------------------------------|
---------------------------------------------|
---------------------------------------------|
Then
---------------------------------------------|
-15-15/-13-13/-12-12/-10-10------------------|
---------------------------------------------|
---------------------------------------------|
---------------------------------------------|
---------------------------------------------|

And that's it. It repeats some parts, it's not hard to figure out though, have fun, 
song.

            
            
Suggest correction
Creating personal tab
Creating personal tab
You can edit any tab online and save it as your Personal.

You can edit, replace or remove any tab part or add personal notes – all changes will be seen only by you.

Personal tabs can be accessed anytime from any device, even offline.
Learn more »
comments
print report bad tab
1 comment total.
-1 reply
apcud7 132 Sep 30, 2009 05:21 PM

nice job. Here is another way to play the intro/verse. You don't even have to move except the pinky on the G string.

e|-----------------------------------------------------------------|
B|-------------------8--8------------------------------------------|
G|-----10------9-----9--9--9--9--10--10----------------------------|
D|-----10--x8-10-x3-------10-10--10--10----------------------------|
A|-----------------------------------------------------------------|
E|-----------------------------------------------------------------|

guest
You may want to rate the tab now too:
select rating
Wanna post a correction for this tab? Suggest correction