Oops, an error
Loading. Please wait.

You Wont Know intro tab

version 1
version 1

Intro

Whole song

Interactive

5,854 views 3 this week
6 commentsread comments
1 2 3 4 5
x 5
add to favorites
×
Save as Personal and add changes to this tab that will be seen only by you. Learn more ›
×
You can save this tab as Personal to edit and correct it or add notes. All changes will be seen only by you. Learn more »
launch autoscroll
font size
0
reset
how to read this tab
guitar tuner
edit
Autoscroll
slow
fast
+/-
esc
set tempo
stop
Author
Difficulty
eb|---0-0--3-2--0-0--2h3p2----|
Bb|---------------------------|
Gb|---------------------------|x2
Db|---------------------------|
Ab|---------------------------|
Eb|---------------------------|

eb|---0-0-2-3--0-0--2h3p2-----|
Bb|---------------------------|
Gb|---------------------------|x2
Db|---------------------------|
Ab|---------------------------|
Eb|---------------------------|

Just keep repeating those. If you listen to the song you can tell there are two 
riffs going at the same time, the violin and what sounds like a keyboard. You can mess around 
the 3's and 2's to pick up either riff.
This is my first tab so i am completely new at making these things. Any advice would be appreciated.

Thanks,
Kevin

            
            
Suggest correction
Creating personal tab
Creating personal tab
You can edit any tab online and save it as your Personal.

You can edit, replace or remove any tab part or add personal notes – all changes will be seen only by you.

Personal tabs can be accessed anytime from any device, even offline.
Learn more »
comments
print report bad tab
6 comments total. Showing first comments.
0 reply
eblood21 43 Nov 25, 2006 12:33 PM

you put 0-0 on both sets of the intro...it is clearly not right

0 reply
iamtheguitarpro 81 Nov 25, 2006 02:58 PM

you..
ugh

0 reply
Whatley2212 120 Dec 01, 2006 06:43 PM

uhhh.. well first of all you've got the order wrong..and there are easier ways to play it but if you insist on playing it this way it should be like this...

eb|-0-0-3p2-0-0-2h3-0-0-3p2-0-0-2p3h2|
Bb|----------------------------------|
Gb|----------------------------------|
Db|----------------------------------|
Ab|----------------------------------|
Eb|----------------------------------|
| |
eb|-----3p2-----2h3-----3p2-----2h3p2|
Bb|-1-1-----1-1-----1-1-----1-1------|
Gb|----------------------------------|
Db|----------------------------------|
Ab|----------------------------------|
Eb|----------------------------------|
(do this 9 times)

guest
You may want to rate the tab now too:
select rating
Wanna post a correction for this tab? Suggest correction