Oops, an error
Loading. Please wait.

Your Favorite Weapon album bass

6,911 views 18 this week
4 commentsread comments
1 2 3 4 5
x 3
add to favorites
×
Save as Personal and add changes to this tab that will be seen only by you. Learn more ›
×
You can save this tab as Personal to edit and correct it or add notes. All changes will be seen only by you. Learn more »
launch autoscroll
font size
0
reset
guitar tuner
edit
Autoscroll
slow
fast
+/-
esc
set tempo
stop
I (lordofthefood1) tabbed most of this myself, but took bits and pieces from various 
around here.  More songs were in Drop than I originally thought.
:
Multiples right after mean just that part is repeated
(e.g. Sudden Death intro would only have the first bars repeated)
Multiples at the bottom of a section mean the whole section is repeated
(e.g. Last Chance verse would have a repeat tall of the verse)
:
Most of the tab is to scale
:
(for The Shower Scene, Q means a Quarter note, E means an Eight note, X is a dead note)

01 The Shower Scene

Intro

Gb-----------------------------------------------------------|
Db-----------------------------------------------------------|
Ab-----------------------------------------------------------|
Db-4-4-44-0-000-0004-4-44-0-000-000---4-44-0-000-0002-2-22-5-|

Verse

Gb-------------------------------------------------------------------|
Db-------------------------------------------------------------------|
Ab-------------------------------------------------------------------|
Db-4-4-44-0-000-0004-4-44-0-000-000---4-44-0-000-0002-2-22-5-555-555-|
X2

Break

Gb---------------------------------------------------|
Db---------------------------------------------------|
Ab---------------------------------------------------|
Db-7---------------5---------------7---------------3-|

Verse

Gb-------------------------------------------------------------------|
Db-------------------------------------------------------------------|
Ab-------------------------------------------------------------------|
Db-4-4-44-0-000-0004-4-44-0-000-000---4-44-0-000-0002-2-22-5-555-555-|

Gb-------------------------------------------------------------------|
Db-------------------------------------------------------------------|
Ab-------------------------------------------------------------------|
Db-4-4-44-0-000-0004-4-44-0-000-000---4-44-0-000-0002-2-22-X-5-5-5-5-|

Break

Gb-----------------------------------------------------------------|
Db-----------------------------------------------------------------|
Ab-----------------------------------------------------------------|
Db-7---------------5---------------7---------------3---------------|

Gb-----------------------------------------------------------------|
Db-----------------------------------------------------------------|
Ab-----------------------------------------------------------------|
Db-7-7-7-7-7-7-7-7-7-7-7-7-7-7-7-7-5-5-5-5-5-5-5-5-5-5-5-5-5-5-5-5-|

Gb-----------------------------------------------------------------|
Db-----------------------------------------------------------------|
Ab-----------------------------------------------------------------|
Db-7-7-7-7-7-7-7-7-7-7-7-7-7-7-7-7-3-3-3-3-3-3-3-3-3-3-3-3-3-3-3-3-|

Gb-----------------------------------------------------------------|
Db-----------------------------------------------------------------|
Ab-----------------------------------------------------------------|
Db-5-5-5-5-5-5-5-5-5-5-5-5-5-5-5-5-7-7-7-7-7-7-7-7-7-7-7-7-7-7-7-7-|

Gb-----------------------------------------------------------------|
Db-----------------------------------------------------------------|
Ab-3-3-3-3-3-3-3-3-3-3-3-3-3-3-3-3---------------------------------|
Db-----------------------------------------------------------------|

Time Signature Change

   9/8               9/8               4/4
Gb-------------------------------------|---------------|
Db-----------------------------------------------------|
Ab-----4-----4---------3-------4-----4---------3-----3-|
Db-4-------4-----0---0-----4-------4---|-0---0-----0---|
   Q   Q   E Q   Q   E Q   Q   Q   E Q   Q   E Q   E E
X2

   2/2
Gb-----R-|
Db-----E-|
Ab-----S-|
Db-x-x-T-|
   E E Q

   9/8               9/8               4/4
Gb-------------------------------------|---------------|
Db-----------------------------------------------------|
Ab-----4-----4---------3-------4-----4---------3-----3-|
Db-4-------4-----0---0-----4-------4---|-0---0-----0---|
   Q   Q   E Q   Q   E Q   Q   Q   E Q   Q   E Q   E E
X2

(Back and forth guitars, then)

Gb-----
Db-0-0-
Ab-----
Db-----

Bridge

Gb-----------------------------------------------------------------|
Db-----------------------------------------------------------------|
Ab-----------------------------------------------------------------|
Db-4-4-4-4-4-4-4-4-4-4-4-4-4-4-4-4-0-0-0-0-0-0-0-0-0-0-0-0-0-0-0-0-|
X4

Outro

Gb------------------------------------|
Db------------------------------------|
Ab---------------------------------0~-|
Db-4-4-4-4-----4-4-4-4-----4-4--------|

02 Jude Law And A Semester Abroad

Verse

Gb---------------------------------------------------------------|
Db---------------------------------------------------------------|
Ab-4---4-4-4-4-4-2---2-2-2-2-2-2---------------------------------|
Eb-------------------------------4---4-4-4-4-4-4-4---4-4-4-4-4-4-|
X2

Gb---------------------------------------------|
Db---------------------------------------------|
Ab-4---4-4---4-4-4-4---------0---0-0---0-0-0-0-|
Eb---------------------------------------------|
X2

Gb-----------------------------------------------------------------|
Db-----------------------------------------------------------------|
Ab-2-2-2-2-2-2-2-2-2-2-2-2-2-2-2-2-0-0-0-0-0-0-0-0-0-0-0-0-0-0-0-0-|
Eb-----------------------------------------------------------------|

Chorus

Gb---------------------------------|
Db---------------------------------|
Ab-7---7-----------6---6-----------|
Eb---------------------------------|

Gb-----------------------------------------------------------------|
Db-----------------------------------------------------------------|
Ab-4-4-4-4-4-4-4-4-4-4-4-4-4-4-4-4-2-2-2-2-2-2-2-2-2-2-2-2-2-2-2-2-|
Eb-----------------------------------------------------------------|

Gb---------------------------------------------------------------|
Db---------------------------------------------------------------|
Ab-7-------7-------7---7----7-7-7-6-------6-------6---6----6-6-6-|
Eb---------------------------------------------------------------|

Gb-----------------------------------------------------------------|
Db-----------------------------------------------------------------|
Ab-4-4-4-4-4-4-4-4-4-4-4-4-4-4-4-4-2-2-2-2-2-2-2-2-2-2-2-2-2-2-2-2-|
Eb-----------------------------------------------------------------|

Break

Gb------------------------------------------------------------------|
Db------------------------------------------------------------------|
Ab------------------------------------------------------------------|
Eb--4---4-4-4-4-4-4-4---4-4-4-4-4-9---9-9-9-9-9-7---7-7-7-7-7-7-4---|

Verse

Gb---------------------------------------------------------------|
Db---------------------------------------------------------------|
Ab-4---4-4-4-4-4-2---2-2-2-2-2-2---------------------------------|
Eb-------------------------------4---4-4-4-4-4-4-4---4-4-4-4-4-4-|
X4

Gb---------------------------------------------|
Db---------------------------------------------|
Ab-4---4-4---4-4-4-4---------0---0-0---0-0-0-0-|
Eb---------------------------------------------|
X2

Gb-----------------------------------------------------------------|
Db-----------------------------------------------------------------|
Ab-2-2-2-2-2-2-2-2-2-2-2-2-2-2-2-2-0-0-0-0-0-0-0-0-0-0-0-0-0-0-0-0-|
Eb-----------------------------------------------------------------|

Chorus

Gb---------------------------------|
Db---------------------------------|
Ab-7---7-----------6---6-----------|
Eb---------------------------------|

Gb-----------------------------------------------------------------|
Db-----------------------------------------------------------------|
Ab-4-4-4-4-4-4-4-4-4-4-4-4-4-4-4-4-2-2-2-2-2-2-2-2-2-2-2-2-2-2-2-2-|
Eb-----------------------------------------------------------------|

Gb---------------------------------------------------------------|
Db---------------------------------------------------------------|
Ab-7-------7-------7---7----7-7-7-6-------6-------6---6----6-6-6-|
Eb---------------------------------------------------------------|

Gb-----------------------------------------------------------------|
Db-----------------------------------------------------------------|
Ab-4-4-4-4-4-4-4-4-4-4-4-4-4-4-4-4-2-2-2-2-2-2-2-2-2-2-2-2-2-2-2-2-|
Eb-----------------------------------------------------------------|

Bridge

Gb-----------------------------------------------------------------|
Db-----------------------------------------------------------------|
Ab-7---------------6---------------7---------------6---------------|
Eb-----------------------------------------------------------------|

Gb-----------------------------------------------------------------|
Db-----------------------------------------------------------------|
Ab-4-4-4---4-4-4---4-4-4---4-4-4---2-2-2---2-2-2---2-2-2---2-2-2---|
Eb-----------------------------------------------------------------|

Gb---------------------------------|
Db---------------------------------|
Ab-7---------------6---------------|
Eb---------------------------------|

Gb-----------------------------------------------------------------|
Db-----------------------------------------------------------------|
Ab-4-4-4---4-4-4---4-4-4---4-4-4---2-2-2---2-2-2---2-2-2---2-2-2---|
Eb-----------------------------------------------------------------|

Gb---------------------------------------------------------|
Db---------------------------------------------------------|
Ab-7---------------6---------------4-4-4-4-4-4-4-4-4-4-4-4-|
Eb---------------------------------------------------------|

Chorus

Gb-----------------------------------------------------------------|
Db-----------------------------------------------------------------|
Ab-7---7---7-7-7-7---7-7-7-7-7-7-7-6---6---6-6-6-6---6-6-6-6-6-6-6-|
Eb-----------------------------------------------------------------|

Gb-----------------------------------------------------------------|
Db-----------------------------------------------------------------|
Ab-0---0---0-0-0-0-0-0-0-0-0-0-0-0-4---4---4-4-4-4-2-2-2-2-2-2-2-2-|
Eb-----------------------------------------------------------------|

X4

Gb---
Db---
Ab-7~
Eb---

03 Sudden Death In Carolina

Intro

Gb-----------------------------------------------------------------|
Db-----------------------------------------------------------------|
Ab-5-5-5-5-5-5-5-5-------------------------------------------------|
Eb-----------------7-7-7-7-7-7-7-7-5-5-5-5-5-5-5-5-3-3-3-3-3-3-3-3-|
X2

Gb-----------------------|
Db-----------------------|
Ab-2-2-2-5---4-----------|
Eb---------------5---5-5-|

Verse

Gb-----------------------------------------------------------------|
Db-----------------------------------------------------------------|
Ab-5-5-5-5-5-5-5-5-------------------------------------------------|
Eb-----------------7-7-7-7-7-7-7-7-5-5-5-5-5-5-5-5-3-3-3-3-3-3-3-3-|
X4

Pre Chorus (Play with tempo)

Gb-----|-----------|
Db-----|-----------|
Ab-----|-----------|
Eb-5-5-|-5-5-5-5-5-|

Chorus

Gb-----------------------------------------------------------------|
Db-----------------------------------------------------------------|
Ab-5-5-5-5-5-5-5-5-------------------------------------------------|
Eb-----------------7-7-7-7-7-7-7-7-5-5-5-5-5-5-5-5-3-3-3-3-3-3-3-3-|
X4

Gb-----------------------|
Db-----------------------|
Ab-2-2-2-5---4-----------|
Eb---------------5---5-5-|

Verse

Gb-----------------------------------------------------------------|
Db-----------------------------------------------------------------|
Ab-5-5-5-5-5-5-5-5-------------------------------------------------|
Eb-----------------7-7-7-7-7-7-7-7-5-5-5-5-5-5-5-5-3-3-3-3-3-3-3-3-|
X4

Pre Chorus (Play with tempo)

Gb-----|-----------|
Db-----|-----------|
Ab-----|-----------|
Eb-5-5-|-5-5-5-5-5-|

Chorus

Gb-----------------------------------------------------------------|
Db-----------------------------------------------------------------|
Ab-5-5-5-5-5-5-5-5-------------------------------------------------|
Eb-----------------7-7-7-7-7-7-7-7-5-5-5-5-5-5-5-5-3-3-3-3-3-3-3-3-|
X4

Bridge

Gb-----------------------------------------------------------------|
Db-----------------------------------------------------------------|
Ab-5-5-5-5-5-5-5-5-5-5-5-5-5-5-5-5---------------------------------|
Eb---------------------------------5-5-5-7-7-7-2-2-2-3-3-3-3-3-3-3-|
X3

Gb-----------------------------------------------------------------------------------|
Db-----------------------------------------------------------------------------------|
Ab-5-5-5-5-5-5-5-5-5-5-5-5-5-5-5-5---------------------------------------------------|
Eb---------------------------------5-5---7-7---2-2---3-3-3-3-3-3-3---5-5---7-7---2/7-|

Chorus

Gb-----------------------------------------------------------------|
Db-----------------------------------------------------------------|
Ab-5-5-5-5-5-5-5-5-------------------------------------------------|
Eb-----------------7-7-7-7-7-7-7-7-5-5-5-5-5-5-5-5-3-3-3-3-3-3-3-3-|
X4

Gb-----------------------|
Db-----------------------|
Ab-2-2-2-5---4-----------|
Eb---------------5---5-5-|

04 Mixtape

Bridge

Gb---------------------------------|
Db---------------------------------|
Ab---------------------------------|
Db-0-0-0-0-0-0-0-0-0-0-0-0-0-0-0-0-|

Gb-----------------------------------------------------------------|
Db-----------------------------------------------------------------|
Ab-0-0-0-0-0-0-0-0-0-0-0-0-0-2-2-2---------------------------------|
Db---------------------------------0-0-0-0-0-0-0-0-0-0-0-0-0-0-0-0-|
X4

Verse

Gb-----------------------------------------------------------------|
Db-----------------------------------------------------------------|
Ab-0-0-0-0-0-0-0-0-0-0-0-0-0-2-2-2---------------------------------|
Db---------------------------------0-0-0-0-0-0-0-0-0-0-0-0-0-0-0-0-|
X8

Bridge

Gb-----------------------------------------------------------------|
Db-----------------------------------------------------------------|
Ab-0-0-0-0-0-0-0-0-0-0-0-0-0-2-2-2---------------------------------|
Db---------------------------------0-0-0-0-0-0-0-0-0-0-0-0-0-0-0-0-|
X8

(Then go crazy in D)

05 Failure By Design

Verse

Gb--------------------------------------------------|
Db--------------------------------------------------|
Ab-------------------------4-4-4-4-2-2-2-2-242020---|
Eb-0-0-0-0-4-4-2-2-0-0-0-0-----------------------42-|

Gb------------------------------------------------------------------|
Db------------------------------------------------------------------|
Ab---------4-4-4-4-------------------------4-4-4-4-2-2-2-2-242020---|
Eb-0-0-0-0---------0-0-0-0-4-4-2-2-0-0-0-0-----------------------42-|

Pre Chorus

Gb---------------------------------------------------------|
Db---------------------------------------------------------|
Ab---------------------------------------------------------|
Eb-0-------0-------4h5-4h5-4h5-0-------4---5---7---2---4---|

Chorus

Gb-------------------------------------------------------------------------|
Db-------------------------------------------------------------------------|
Ab---------------------------------2-----2-----2-4-4-4-4-4-4-4-7-7---------|
Eb-5-5-5-5-5-5-7-7-0---0-0-0-0-0-0---4-0---4-0---------------------2---4---|
X2

Gb-----------------|
Db-----------------|
Ab-----------------|
Eb-5-4-5-4-5-4-5-4-|

Verse

Gb--------------------------------------------------|
Db--------------------------------------------------|
Ab-------------------------4-4-4-4-2-2-2-2-242020---|
Eb-0-0-0-0-4-4-2-2-0-0-0-0-----------------------42-|

Gb------------------------------------------------------------------|
Db------------------------------------------------------------------|
Ab---------4-4-4-4-------------------------4-4-4-4-2-2-2-2-242020---|
Eb-0-0-0-0---------0-0-0-0-4-4-2-2-0-0-0-0-----------------------42-|

Pre Chorus

Gb---------------------------------------------------------|
Db---------------------------------------------------------|
Ab---------------------------------------------------------|
Eb-0-------0-------4h5-4h5-4h5-0-------4---5---7---2---4---|

Chorus

Gb-------------------------------------------------------------------------|
Db-------------------------------------------------------------------------|
Ab---------------------------------2-----2-----2-4-4-4-4-4-4-4-7-7---------|
Eb-5-5-5-5-5-5-7-7-0---0-0-0-0-0-0---4-0---4-0---------------------2---4---|
X2

Gb-----------------|
Db-----------------|
Ab-----------------|
Eb-5-4-5-4-5-4-5-4-|

Bridge

Gb---------------------------------|
Db---------------------------------|
Ab-----------------4-4-4-2-2-2-2-2-|
Eb-0-0-0-0-0-0-0-0-----------------|
x7

Gb---------------------------|
Db---------------------------|
Ab---------------------------|
Eb-0-0-0-0-0-0-0-0-4-5-7-2-4-|

Chorus

Gb-------------------------------------------------------------------------|
Db-------------------------------------------------------------------------|
Ab---------------------------------2-----2-----2-4-4-4-4-4-4-4-7-7---------|
Eb-5-5-5-5-5-5-7-7-0---0-0-0-0-0-0---4-0---4-0---------------------2---4---|
X2

Gb-------------------|
Db-------------------|
Ab-------------------|
Eb-5-4-5-4-5-4-5-4-5-|

06 Last Chance To Lose Your Keys

Intro

Gb----------------|
Db----------------|
Ab----2-------4-2-|
Eb-0------0-------|
X2

Verse

Gb-----------------------------------------------------------------|
Db-----------------------------------------------------------------|
Ab-7-7-7-7-7-7-7-7-6-6-6-6-6-6-6-6-4-4-4-4-4-4-4-4-2-2-2-2-2-2-2-2-|
Eb-----------------------------------------------------------------|

X4


Bridge

Gb-----------------------------------------------------------------|
Db-----------------------------------------------------------------|
Ab-0-0-0-0-0-0-0-0-0-0-0-0-0-0-0-0-2-2-2-2-2-2-2-2-2-2-2-2-2-2-2-2-|
Eb-----------------------------------------------------------------|

Gb-----------------------------------|
Db-----------------------------------|
Ab-0-0-0-0-0-0-0-0-0-0-0-0-0-0-0-0-2-|
Eb-----------------------------------|

Chorus

Gb---------------------------------|
Db---------------------------------|
Ab---------2-2-------------4-4-2-2-|
Eb-0-0-------------0-0-------------|
X2

Bridge

Gb-----------------------------------------------------------------|
Db-----------------------------------------------------------------|
Ab-0-0-0-0-0-0-0-0-0-0-0-0-0-0-0-0-2-2-2-2-2-2-2-2-2-2-2-2-2-2-2-2-|
Eb-----------------------------------------------------------------|

Verse

Gb-----------------------------------------------------------------|
Db-----------------------------------------------------------------|
Ab-7-7-7-7-7-7-7-7-6-6-6-6-6-6-6-6-4-4-4-4-4-4-4-4-2-2-2-2-2-2-2-2-|
Eb-----------------------------------------------------------------|

X4

Bridge

Gb-----------------------------------------------------------------|
Db-----------------------------------------------------------------|
Ab-0-0-0-0-0-0-0-0-0-0-0-0-0-0-0-0-2-2-2-2-2-2-2-2-2-2-2-2-2-2-2-2-|
Eb-----------------------------------------------------------------|

Gb-----------------------------------|
Db-----------------------------------|
Ab-0-0-0-0-0-0-0-0-0-0-0-0-0-0-0-0-2-|
Eb-----------------------------------|

Chorus

Gb---------------------------------|
Db---------------------------------|
Ab---------2-2-------------4-4-2-2-|
Eb-0-0-------------0-0-------------|
X4

Bridge

Gb-----------------------------------------------------------------|
Db-----------------------------------------------------------------|
Ab-0-0-0-0-0-0-0-0-0-0-0-0-0-0-0-0-2-2-2-2-2-2-2-2-2-2-2-2-2-2-2-2-|
Eb-----------------------------------------------------------------|

Gb-----------------------------------------------------------------|
Db-----------------------------------------------------------------|
Ab-0-0-0-0-0-0-0-0-0-0-0-0-0-0-0-0-2-2-2-2-2-2-2-2-2-2-2-2-2-2-2-2-|
Eb-----------------------------------------------------------------|

Breakdown

Gb-----------------------------------------------------------------|
Db-----------------------------------------------------------------|
Ab-7---------------6-----------------------------------------------|
Eb---------------------------------5---------------7---------------|
X2

Gb-----------------------------------------------------------------|
Db-----------------------------------------------------------------|
Ab-7-7-------------6-6-------------0-0---7-6---7---------9-7---6---|
Eb-------0-7---0---------0-7---0-------------------7-7-------------|
X2

Chorus

Gb---------------------------------|
Db---------------------------------|
Ab---------2-2-------------4-4-2-2-|
Eb-0-0-------------0-0-------------|
X4

Gb-------------------------------------------------------------------|
Db-------------------------------------------------------------------|
Ab-----------------2-2-2-2-2-2-2-2-----------------4-4-4-4-2-2-2-2-2-|
Eb-0-0-0-0-0-0-0-0-----------------0-0-0-0-0-0-0-0-------------------|
X4

Gb-----
Db-----
Ab-----
Eb-0~~-

07 Logan To Government Center

Intro

Gb-----------------------------------------------------------------|
Db-----------------------------------------------------------------|
Ab-----------------------------------------------------------------|
Db-7-7-7-7-7-7-7-7-4-4-4-4-4-4-4-4-0-0-0-0-0-0-0-0-0-0-0-0-0-0-0-0-|
x4

Verse

Gb-----------------------------------------------------------------|
Db-----------------------------------------------------------------|
Ab-----------------------------------------------------------------|
Db-7-7-7-7-7-7-7-7-4-4-4-4-4-4-4-4-0-0-0-0-0-0-0-0-0-0-0-0-0-0-0-0-|
x4

Chorus

Gb-------------------------------------------------------------|
Db-------------------------------------------------------------|
Ab-------------------------------------------------------------|
Db-7-7-7-7-7---9-9-9-9-9-9-9-9-0-0-0-0-0-0-0-0-0-0-0-0-0-0-0-0-|

Gb-------------------------------------------------------------|
Db-------------------------------------------------------------|
Ab---------------------------------------------5-5-4-4-2-2-0-0-|
Db-7-7-7-7-7---9-9-9-9-9-9-9-9-0-0-0-0-0-0-0-0-----------------|

Break

Gb-----------------------------------------------------------------|
Db-----------------------------------------------------------------|
Ab-----------------------------------------------------------------|
Db-7-7-7-7-7-7-7-7-4-4-4-4-4-4-4-4-0-0-0-0-0-0-0-0-0-0-0-0-0-0-0-0-|
X2

Verse

Gb-----------------------------------------------------------------|
Db-----------------------------------------------------------------|
Ab-----------------------------------------------------------------|
Db-7-7-7-7-7-7-7-7-4-4-4-4-4-4-4-4-0-0-0-0-0-0-0-0-0-0-0-0-0-0-0-0-|
x4

Chorus

Gb-------------------------------------------------------------|
Db-------------------------------------------------------------|
Ab-------------------------------------------------------------|
Db-7-7-7-7-7---9-9-9-9-9-9-9-9-0-0-0-0-0-0-0-0-0-0-0-0-0-0-0-0-|

Gb-------------------------------------------------------------|
Db-------------------------------------------------------------|
Ab---------------------------------------------5-5-4-4-2-2-0-0-|
Db-7-7-7-7-7---9-9-9-9-9-9-9-9-0-0-0-0-0-0-0-0-----------------|

Gb-------------------------------------------------------------|
Db-------------------------------------------------------------|
Ab-------------------------------------------------------------|
Db-7-7-7-7-7---9-9-9-9-9-9-9-9-0-0-0-0-0-0-0-0-0-0-0-0-0-0-0-0-|

Gb-------------------------------------------------------------|
Db-------------------------------------------------------------|
Ab-------------------------------------------------------------|
Db-7-7-7-7-7---9-9-9-9-9-9-9-9-0-0-0-0-0-0-0-0-0-0-0-0-0-0-0-0-|

Bridge

Gb-------------------------------------------------------------------|
Db-------------------------------------------------------------------|
Ab-------------------------------------------------------------------|
Db-4-4-4-4-4-4-4-4-4-4-4-4-----------0-0-0-0-0-0-0-0-0-0-0-0-0-0-0-0-|
x2

Gb-------------------------------------------------------------------|
Db-------------------------------------------------------------------|
Ab-------------------------------------------------------------------|
Db-4-4-4-4-4-4-4-4-4-4-4-4-4-4-4-4--0-0-0-0-0-0-0-0-0-0-0-0-0-0-0-0--|
x2

Gb-----|
Db-----|
Ab-----|
Db-7~~-|

(Play in rhythm)
Gb-------------------------------------------------------------------|
Db-------------------------------------------------------------------|
Ab-------------------------------------------------------------------|
Db-7-7-7-7-7-7-7-7--4-4-4-4-4-4-4-4--0-0-0-0-0-0-0-0-0-0-0-0-0-0-0-0-|
X2

Outro

Gb-------------------------------------------------------------|
Db-------------------------------------------------------------|
Ab-------------------------------------------------------------|
Db-7-7-7-7-7---9-9-9-9-9-9-9-9-0-0-0-0-0-0-0-0-0-0-0-0-0-0-0-0-|

Gb-------------------------------------------------------------|
Db-------------------------------------------------------------|
Ab---------------------------------------------5-5-4-4-2-2-0-0-|
Db-7-7-7-7-7---9-9-9-9-9-9-9-9-0-0-0-0-0-0-0-0-----------------|

Gb-------------------------------------------------------------|
Db-------------------------------------------------------------|
Ab-------------------------------------------------------------|
Db-7-7-7-7-7---9-9-9-9-9-9-9-9-0-0-0-0-0-0-0-0-0-0-0-0-0-0-0-0-|

Gb-------------------------------|
Db-------------------------------|
Ab-------------------------------|
Db-7-7-7-7-7---9-9-9-9-9-9-9-9-0-|

08 The No Seatbelt Song

Intro/Verse

Gb-----------------------------------------------------------------|
Db-----------------2-2-2-2-2-2-2-2---------------------------------|
Ab-4-4-4-4-4-4-4-2-----------------4-4-4-4-4-4-4-2-----------------|
Eb-------------------------------------------------5-5-5-5-4-4-4-4-|

Gb-----------------------------------------------------------------|
Db-----------------------------------------------------------------|
Ab-2-2-2-2-2-2-2---0-0-0-0-0-0-0-0-2-2-2-2-2-2-2---0~~~~~~~~~~~~~~-|
Eb---------------0-------------------------------0-----------------|

X3

Chorus

Gb-----------------------------------------------------------------|
Db-----------------------------------------------------------------|
Ab-4-4-4-4-4-4-4-2-7-7-7-7-7-7-7-7-4-4-4-4-4-4-4-2-7-7-7-7-7-7-7-7-|
Eb-----------------------------------------------------------------|
X4

Verse

Gb-----------------------------------------------------------------|
Db-----------------2-2-2-2-2-2-2-2---------------------------------|
Ab-4-4-4-4-4-4-4-2-----------------4-4-4-4-4-4-4-2-----------------|
Eb-------------------------------------------------5-5-5-5-4-4-4-4-|

Gb-----------------------------------------------------------------|
Db-----------------------------------------------------------------|
Ab-2-2-2-2-2-2-2---0-0-0-0-0-0-0-0-2-2-2-2-2-2-2---0~~~~~~~~~~~~~~-|
Eb---------------0-------------------------------0-----------------|

X2

Chorus

Gb-----------------------------------------------------------------|
Db-----------------------------------------------------------------|
Ab-4-4-4-4-4-4-4-2-7-7-7-7-7-7-7-7-4-4-4-4-4-4-4-2-7-7-7-7-7-7-7-7-|
Eb-----------------------------------------------------------------|
X8

Bridge

Gb-----------------------------------------------------------------|
Db-----------------------------------------------------------------|
Ab-2-2-2-2-2-2-2-2-2-2-2-2-2-2-2-2-2-2-2-2-2-2-2-2-2-2-2-2-2-2-2-2-|
Eb-----------------------------------------------------------------|
X2

Gb-----------------------------------------------------------------|
Db-----------------2-2---2-----2-------1-------1-------------------|
Ab-4-4-2-4-r-2-4-2-----4---r-4---4-2-2---2-r-2---2-0-0-2-0-r-0-2-0-|
Eb-----------------------------------------------------------------|
X2

Gb-----------------|
Db-----------------|
Ab-2-2-2-2-2-2-2-2-|
Eb-----------------|

Chorus

Gb-----------------------------------------------------------------|
Db-----------------------------------------------------------------|
Ab-4-4-4-4-4-4-4-2-7-7-7-7-7-7-7-7-4-4-4-4-4-4-4-2-7-7-7-7-7-7-7-7-|
Eb-----------------------------------------------------------------|
X8

Outro
Gb--------------------------------------------------------------------|
Db--------------------------------------------------------------------|
Ab-2-2-2-2-2-2-2-2-2-2-2-2-2-2-2-2-2-2-2-2-2-2-2-2-2-2-2-2-2-2-2-2-4~-|
Eb--------------------------------------------------------------------|

09 Seventy Times 7

Intro

Gb-----------------|
Db-----------------|
Ab-----5~~-----5~~-|
Db-7~~-----7-------|

Gb-----------------------------------------------------------------|
Db-----------------------------------------------------------------|
Ab---------------------------------7-7-7-7-7-7-7-7-7-7-7-7-7-7-7-7-|
Db-7-7-7-7-7-7-7-7-7-7-7-7-7-7-7-7---------------------------------|

Gb-----------------------------------------------------------------|
Db-----------------------------------------------------------------|
Ab-5-5-5-5-5-5-5-5-5-5-5-5-5-5-5-5-7-7-7-7-7-7-7-7-5-5-5-5-5-5h7p5-|
Db-----------------------------------------------------------------|

Gb-----------------------------------------------------------------|
Db-----------------------------------------------------------------|
Ab---------------------------------7-7-7-7-7-7-7-7-7-7-7-7-7-7-7-7-|
Db-7-7-7-7-7-7-7-7-7-7-7-7-7-7-7-7---------------------------------|

Gb-----------------------------------------------------------------|
Db-----------------------------------------------------------------|
Ab-5-5-5-5-5-5-5-5-5-5-5-5-5-5-5-5-7-7-7-7-7-7-7-7-5-5-5-5-5-5h7p5-|
Db-----------------------------------------------------------------|

Verse

Gb-----------------------------------------------------------------|
Db-----------------------------------------------------------------|
Ab---------------------------------7-7-7-7-7-7-7-7-7-7-7-7-7-7-7-7-|
Db-7-7-7-7-7-7-7-7-7-7-7-7-7-7-7-7---------------------------------|

Gb-----------------------------------------------------------------|
Db-----------------------------------------------------------------|
Ab-5-5-5-5-5-5-5-5-5-5-5-5-5-5-5-5-7-7-7-7-7-7-7-7-5-5-5-5-5-5h7p5-|
Db-----------------------------------------------------------------|

Gb-----------------------------------------------------------------|
Db-----------------------------------------------------------------|
Ab---------------------------------7-7-7-7-7-7-7-7-7-7-7-7-7-7-7-7-|
Db-7-7-7-7-7-7-7-7-7-7-7-7-7-7-7-7---------------------------------|

Gb-----------------------------------------------------------------|
Db-----------------------------------------------------------------|
Ab-5-5-5-5-5-5-5-5-5-5-5-5-5-5-5-5-7-7-7-7-7-7-7-7-5-5-5-5-5-5h7p5-|
Db-----------------------------------------------------------------|

Chorus

Gb-----------------------------------------------------------------|
Db-----------------------------------------------------------------|
Ab---------------------------------5-5-5-5-5-5-5-5-5-5-5-5-5-5-5-5-|
Db-7-7-7-7-7-7-7-7-7-7-7-7-7-7-7-7---------------------------------|
X2

Verse

Gb-----------------------------------------------------------------|
Db-----------------------------------------------------------------|
Ab---------------------------------7-7-7-7-7-7-7-7-7-7-7-7-7-7-7-7-|
Db-7-7-7-7-7-7-7-7-7-7-7-7-7-7-7-7---------------------------------|

Gb-----------------------------------------------------------------|
Db-----------------------------------------------------------------|
Ab-5-5-5-5-5-5-5-5-5-5-5-5-5-5-5-5-7-7-7-7-7-7-7-7-5-5-5-5-5-5h7p5-|
Db-----------------------------------------------------------------|

Gb-----------------------------------------------------------------|
Db-----------------------------------------------------------------|
Ab---------------------------------7-7-7-7-7-7-7-7-7-7-7-7-7-7-7-7-|
Db-7-7-7-7-7-7-7-7-14\\\\\\\\\\\\\---------------------------------|

Gb-----------------------------------------------------------------|
Db-----------------------------------------------------------------|
Ab-5-5-5-5-5-5-5-5-5-5-5-5-5-5-5-5-7-7-7-7-7-7-7-7-5-5-5-5-5-5h7p5-|
Db-----------------------------------------------------------------|

Chorus

Gb-----------------------------------------------------------------|
Db-----------------------------------------------------------------|
Ab---------------------------------5-5-5-5-5-5-5-5-5-5-5-5-5-5-5-5-|
Db-7-7-7-7-7-7-7-7-7-7-7-7-7-7-7-7---------------------------------|
X4

Bridge

Gb-----------------------------------------------------------------|
Db-----------------------------------------------------------------|
Ab-----------------------------------------------------------------|
Db-7-7-7-7-7-7-7-7-7-7-7-7-7-7-7-7-4-4-4-4-4-4-4-4-4-4-4-4-4-4-4-4-|

Gb-----------------------------------------------------------------|
Db-----------------------------------------------------------------|
Ab-----------------------------------------------------------------|
Db-2-2-2-2-2-2-2-2-2-2-2-2-2/7-7-7-0-0-0-0-0-0-0-0-0-0-0-0-0-0-0-0-|

X6

Chorus

Gb-----------------------------------------------------------------|
Db-----------------------------------------------------------------|
Ab-----------------------------------------------------------------|
Db-7-7-7-7-7-7-7-7-7-7-7-7-7-7-7-7-4-4-4-4-4-4-4-4-4-4-4-4-4-4-4-4-|

Gb-----------------------------------------------------------------|
Db-----------------------------------------------------------------|
Ab-----------------------------------------------------------------|
Db-2-2-2-2-2-2-2-2-2-2-2-2-2-2-2-2-0-0-0-0-0-0-0-0-0-0-0-0-0-0-0-0-|

Gb-----------------------------------------------------------------|
Db-----------------------------------------------------------------|
Ab-----------------------------------------------------------------|
Db-7-7-7-7-7-7-7-7-7-7-7-7-7-7-7-7-4-4-4-4-4-4-4-4-4-4-4-4-4-4-4-4-|

Gb-----------------------------------------------------------------|
Db-----------------------------------------------------------------|
Ab-----------------------------------------------------------------|
Db-2-2-2-2-2-2-2-2-2-2-2-2-2-2-2-2-0-0-------------0-0-------------|

X2

10 Secondary

Intro

Gb-----------------------------------------------------------------|
Db-----------------------------------------------------------------|
Ab-4-5-5-5-5-5-----------------------------------------------------|
Db-------------5--5---5-5-5-5-5-5-5-4-5-5-5-5-5--0---0-0-0-0-0-0-0-|

Gb----------------------------------------------|
Db----------------------------------------------|
Ab-4-5-5-5-5-5----------------------------------|
Db-------------5--5---5-5-5-5-5-5-5-4-5-5-5-5-5-|

Verse

Gb-----------------------------------------------------------------|
Db-----------------------------------------------------------------|
Ab-5-5-5-5-5-5-5-5-----------------9-9-9-9-7-7-7-7-----------------|
Db-----------------5-5-5-5-5-5-5-5-----------------7-7-7-7-5-5-5-5-|
X2

Chorus

Gb-----------------------------------------------------------------|
Db-----------------------------------------------------------------|
Ab-5-5-----------------------------5-5-----------------------------|
Db-----------------7-7-----------------------------5-5-------------|

Gb-----------------------------------------------------------------|
Db-----------------------------------------------------------------|
Ab-5-5-------------------------------------------------------------|
Db-----------------7-7-------------5-5-5-5-5-5-5-5-5-5-5-5-5-5-5-5-|

Post Chorus

Gb-----------------------------------------------------------------|
Db-----------------------------------------------------------------|
Ab-4-5-5-5-5-5-----------------------------------------------------|
Db-------------5--5---5-5-5-5-5-5-5-4-5-5-5-5-5--0---0-0-0-0-0-0-0-|

Gb----------------------------------------------|
Db----------------------------------------------|
Ab-4-5-5-5-5-5----------------------------------|
Db-------------5--5---5-5-5-5-5-5-5-4-5-5-5-5-5-|

Verse

Gb-----------------------------------------------------------------|
Db-----------------------------------------------------------------|
Ab-5-5-5-5-5-5-5-5-----------------9-9-9-9-7-7-7-7-----------------|
Db-----------------5-5-5-5-5-5-5-5-----------------7-7-7-7-5-5-5-5-|
X2

Chorus

Gb-----------------------------------------------------------------|
Db-----------------------------------------------------------------|
Ab-5-5-----------------------------5-5-----------------------------|
Db-----------------7-7-----------------------------5-5-------------|

Gb-----------------------------------------------------------------|
Db-----------------------------------------------------------------|
Ab-5-5-------------------------------------------------------------|
Db-----------------7-7-------------5-5-------------5-5-------------|

Gb-----------------------------------------------------------------|
Db-----------------------------------------------------------------|
Ab-5-5-----------------------------5-5-----------------------------|
Db-----------------7-7-----------------------------5-5-------------|

Gb-----------------------------------------------------------------|
Db-----------------------------------------------------------------|
Ab-5-5-------------------------------------------------------------|
Db-----------------7-7-------------5-5-5-5-5-5-5-5-5-5-5-5-5-5-5-5-|

Bridge

Gb---------------------------------|
Db---------------------------------|
Ab-5~~~~~~---------5~~~~~~---------|
Db---------5~~~~~~---------7~~-5~~-|

Gb-------------------------|
Db-5-4-----5-4-2~~-5-4-----|
Ab-----5~~-------------5~~-|
Db-------------------------|

Verse

Gb-----------------------------------------------------------------|
Db-----------------------------------------------------------------|
Ab-5-5-5-5-5-5-5-5-----------------9-9-9-9-7-7-7-7-----------------|
Db-----------------5-5-5-5-5-5-5-5-----------------7-7-7-7-5-5-5-5-|
X2

Outro

Gb-----------------------------------------------------------------|
Db-----------------------------------------------------------------|
Ab-5-5-----------------------------5-5-----------------------------|
Db-----------------7-7-----------------------------5-5-------------|

Gb-----------------------------------------------------------------|
Db-----------------------------------------------------------------|
Ab-5-5-------------------------------------------------------------|
Db-----------------7-7-------------5-5-5-5-5-5-5-5-5-5-5-5-5-5-5-5-|

Gb-----------------------------------------------------------------|
Db-----------------------------------------------------------------|
Ab-5-5-5-5-5-5-5-5-----------------5-5-5-5-5-5-5-5-----------------|
Db-----------------7-7-7-7-7-7-7-7-----------------5-5-5-5-5-5-5-5-|

Gb-----------------------------------------------------------------|
Db-----------------------------------------------------------------|
Ab-5-5-5-5-5-5-5-5-------------------------------------------------|
Db-----------------7-7-7-7-7-7-7-7-5-5-5-5-5-5-5-5-5-5-5-5-5-5-5-5-|

Gb-----------------------------------------------------------------|
Db-----------------------------------------------------------------|
Ab-5-5-5-5-5-5-5-5-----------------5-5-5-5-5-5-5-5-----------------|
Db-----------------7-7-7-7-7-7-7-7-----------------5-5-5-5-5-5-5-5-|

Gb------------------------------------|
Db------------------------------------|
Ab-5-5--------------------------------|
Db-----------------7-7-------------5~-|

11 Magazines

Verse

Gb-----------------------------------------------------------------|
Db-----------------------------------------------------------------|
Ab-----------------7-7-----------------------------7-7-------------|
Eb-5-5-----------------------------5-5-----------------------------|

Gb-----------------------------------------------------------------|
Db-----------------------------------------------------------------|
Ab-----------------5-5-5-5-5-5-5-5-----------------9-9-7-7-5-5-----|
Eb-7-7-7-7-7-7-7-7-----------------7-7-7-7-7-7-7-7-------------7-7-|

Gb---------------------------------|
Db---------------------------------|
Ab---------------------------------|
Eb-5-5-------------5-5-------------|

Gb-----------------------------------------------------------------|
Db-----------------------------------------------------------------|
Ab-----------------7-7-----------------------------7-7-------------|
Eb-5-5-----------------------------5-5-----------------------------|

Gb-----------------------------------------------------------------|
Db-----------------------------------------------------------------|
Ab-----------------5-5-5-5-5-5-5-5-----------------9-9-7-7-5-5-----|
Eb-7-7-7-7-7-7-7-7-----------------7-7-7-7-7-7-7-7-------------7-7-|

Chorus

Gb-----------------------------------------------------------------|
Db-----------------------------------------------------------------|
Ab-----------------7-7-7-7-7-7-7-7-9-9-9-9-9-9-9-9-5-5-5-5-5-5-5-5-|
Eb-5-5-5-5-5-5-5-5-------------------------------------------------|
X3

Gb-----------------------------------------------------------------|
Db-----------------------------------------------------------------|
Ab-----------------------------------------------------------------|
Eb-5-5-----------------------------0-0-0-0-0-0-0-0-2-2-2-2-2-2-2-2-|

Gb-----------------------------------------------------------------|
Db-----------------------------------------------------------------|
Ab-5-5-5-5-5-5-5-5-5-5-5-5-5-5-5-5-7-7-7-7-7-7-7-7-7-7-7-7-7-7-7-7-|
Eb-----------------------------------------------------------------|

Verse

Gb-----------------------------------------------------------------|
Db-----------------------------------------------------------------|
Ab-----------------7-7-----------------------------7-7-------------|
Eb-5-5-----------------------------5-5-----------------------------|

Gb-----------------------------------------------------------------|
Db-----------------------------------------------------------------|
Ab-----------------5-5-5-5-5-5-5-5-----------------9-9-7-7-5-5-----|
Eb-7-7-7-7-7-7-7-7-----------------7-7-7-7-7-7-7-7-------------7-7-|

Gb---------------------------------|
Db---------------------------------|
Ab---------------------------------|
Eb-5-5-------------5-5-------------|

Gb-----------------------------------------------------------------|
Db-----------------------------------------------------------------|
Ab-----------------7-7-----------------------------7-7-------------|
Eb-5-5-----------------------------5-5-----------------------------|

Gb-----------------------------------------------------------------|
Db-----------------------------------------------------------------|
Ab-----------------5-5-5-5-5-5-5-5-----------------9-9-7-7-5-5-----|
Eb-7-7-7-7-7-7-7-7-----------------7-7-7-7-7-7-7-7-------------7-7-|

Chorus

Gb-----------------------------------------------------------------|
Db-----------------------------------------------------------------|
Ab-----------------7-7-7-7-7-7-7-7-9-9-9-9-9-9-9-9-5-5-5-5-5-5-5-5-|
Eb-5-5-5-5-5-5-5-5-------------------------------------------------|
X3

Gb-----------------------------------------------------------------|
Db-----------------------------------------------------------------|
Ab-----------------------------------------------------------------|
Eb-5-5-----------------------------0-0-0-0-0-0-0-0-2-2-2-2-2-2-2-2-|

Gb-----------------------------------------------------------------|
Db-----------------------------------------------------------------|
Ab-5-5-5-5-5-5-5-5-5-5-5-5-5-5-5-5-7-7-7-7-7-7-7-7-7-7-7-7-7-7-7-7-|
Eb-----------------------------------------------------------------|

Bridge

Gb-----
Db-----
Ab-0~~-
Eb-----

Gb-----------------------------------------------------------------|
Db-----------------------------------------------------------------|
Ab-----------------7-7-7-7-7-7-7-7-9-9-9-9-9-9-9-9-5-5-5-5-5-5-5-5-|
Eb-5-5-5-5-5-5-5-5-------------------------------------------------|
X2

Gb-----------------------------------|
Db-----------------------------------|
Ab-----------------7-7-7-7-7-7-7-7-9-|
Eb-5-5-5-5-5-5-5-5-------------------|

Chorus

Gb-----------------------------------------------------------------|
Db-----------------------------------------------------------------|
Ab-----------------7-7-7-7-7-7-7-7-9-9-9-9-9-9-9-9-5-5-5-5-5-5-5-5-|
Eb-5-5-5-5-5-5-5-5-------------------------------------------------|
X4

Gb-------------------------------------------------|
Db-------------------------------------------------|
Ab-5-5-5-5-5-5-5-5---------------------------------|
Eb-----------------7-7-7-7-7-7-7-7-7-7-7-7-7-7-7-7-|

Outro

Gb-----------------------------------------------------------------|
Db-----------------------------------------------------------------|
Ab-----------------7-7-----------------------------7-7-------------|
Eb-5-5-----------------------------5-5-----------------------------|

Gb-----------------------------------------------------------------|
Db-----------------------------------------------------------------|
Ab-----------------5-5-5-5-5-5-5-5-----------------9-9-7-7-5-5-----|
Eb-7-7-7-7-7-7-7-7-----------------7-7-7-7-7-7-7-7-------------7-7-|

Gb-------|
Db-------|
Ab-------|
Eb-5-5-5-|

12 Soco Amaretto Lime
(No Bass)
Suggest correction
Creating personal tab
Creating personal tab
You can edit any tab online and save it as your Personal.

You can edit, replace or remove any tab part or add personal notes – all changes will be seen only by you.

Personal tabs can be accessed anytime from any device, even offline.
Learn more »
Give kudos to tab author, rate the tab!
1 2 3 4 5
comments
print report bad tab
4 comments total. Showing first comments.
0 reply
Arlin 166 Mar 13, 2009 01:13 PM

Hmm, no comments or ratings...weird. I think you did a pretty good job. Seems right for the most part: Only little bits here and there that are easy enough to put right by ear. Only thing is Mix Tape doesn't sound right. Also I only think the bass in No Seatbelt Song comes in around the bridge, although the bassline you tabbed does fit. Well done!

0 reply
lordofthefood1 462 Mar 13, 2009 02:18 PM

Which part of Mixtape doesn't sound right? It is for sure in the right key, but beyond that I didn't notice any variation from the verse really. Yeah, you're probably right about No Seatbelt, but I get really bored while playing, so I play something. I think it should just be 7, 7, 7, 6 for the first set of held notes in the bridge of Jude Law (I put 7, 6, 7, 6), but again, it isn't that big of a deal.

I was debating whether to do all separate tabs or just an album one. I think it is just better this way because they're all in the same place, but now I don't get as many points as I could. I'm debating whether to compile Deja Entendu, FOYD, and TDAG.

0 reply
Seney 419 Apr 30, 2009 02:29 PM

You should compile the next album coming up this summer! (hopefully) I'm asking in advance!

guest
You may want to rate the tab now too:
select rating
Wanna post a correction for this tab? Suggest correction