Oops, an error
Loading. Please wait.

You Are The Universe bass

5,003 views 24 this week
no commentswrite comment
1 2 3 4 5
3 more votes to show rating
add to favorites
×
Save as Personal and add changes to this tab that will be seen only by you. Learn more ›
×
You can save this tab as Personal to edit and correct it or add notes. All changes will be seen only by you. Learn more »
launch autoscroll
font size
0
reset
guitar tuner
edit
Autoscroll
slow
fast
+/-
esc
set tempo
stop
Brand New Heavies - You Are The Universe - Bass Tabs

Is in drop D tuning on a 4 string bass: DADG

There are parts where I was not sure (the intro for one), so feel free
to correct my version if you spot a mistake.
Markings of hammers, pulls and some of the slides are omitted but you
can figure them out easily by listening to the song.
I made the tabs more stretched than usual because it gets fast at times
and I wanted to represent the timing for the fast parts too.

f.b

Intro:

g -----------------------------------|
d --9/12---11\8----9/12-8--9/12-12\8-|
a -----------------------------------|
d -----------------------------------|

Song:
g ------------------------------------------------------------------|
d ------------------------------------------------------------------|
a -1-------1------0--------3---4---5---0----------------------------|
d -----------------------------------------0----(3)0-----3--5--3----|

g ------------------------------------------------------------------|
d -------------------------------------3---3-5-----3----------------|
a -1-------1------0--------3---4---5---------------------0-3-5-3-0--|
d ------------------------------------------------------------------|

g ------------------------------------------------------------------|
d ------------------------------------------------------------------|
a -1-------------1-1---------------1-------------1-1-1-1---3---1----|
d -----------------------------3------------------------------------|

g ------------------------------------------------------------------|
d ------------------------------------------------------------------|
a -0-------------0-0---------3-3-4-5-------5-----5-5---5---3--------|
d ------------------------------------------------------------------|

g ---------------------------------3---3----------------------------|
d -----------------------------3---------3--3-----------------------|
a --1------------1-1-------------------------------1-------3---1----|
d ------------------------------------------------------------------|

g ------------------------------------------------------------------|
d ------------------------------------------------------------------|
a -0-------------0-0---------3-3-4-5-------5-------0---0------------|
d ----------------------------------------------(5)--------0--------|

g ------------------------------------------------------------------|
d ------------------------------------------------------------------|
a --1------------1-1---------------1-------------1-1-1-1---3---1----|
d -----------------------------3------------------------------------|

g ------------------------------------------------------------------|
d ------------------------------------------------------------------|
a -0-------------0-0---------3-3-4-5-------5-------0---0------------|
d ----------------------------------------------(5)--------0--------|

g ---------------------------------3---3----------------------------|
d ------------------------------3--------3--3-----------------------|
a -1-------------1-1-------------------------------1-------3---1----|
d ------------------------------------------------------------------|

g ------------------------------------------------------------------|
d ------------------------------------------------------------------|
a -0-------------0-0---------3-3-4-5-------5-------0---0------------|
d ----------------------------------------------(5)--------0--------|

g ------------------------------------------------------------------|
d ------------------------------------------------------------------|
a -------------0----------------------------------------------------|
d -5---5------------------------------------------0---------------5-|

g ------------------------------------------------------------------|
d ------------------------------------------------------------------|
a -------------0---------/12\---------3-0-3-0-3-0-3/5--5--3--3------|
d -----5------------------------------------------------------------|

g ------------------------------------------------------------------|
d ------------------------------------------------------------------|
a -1-------1-----0-------3-3---4---5---0----------------------------|
d -----3-----------------------------------0-----3-------3-5---3----|

g ------------------------------------------------------------------|
d -------------------------------------3---3-5-----3----------------|
a -1-------1-----0-------3-3---4---5---------------------0-3-5-3-0--|
d -----3------------------------------------------------------------|

g ------------------------------------------------------------------|
d ------------------------------------------------------------------|
a -1-------1-----0-------3-3---4---5---0----------------------------|
d -----3-----------------------------------0-----3-------3-5---3----|

g ------------------------------------------------------------------|
d -------------------------------------3---3-5-----3----------------|
a -1-------1-----0-------3-3---4---5---------------------0-3-5-3-0--|
d -----3------------------------------------------------------------|

g ------------------------------------------------------------------|
d ------------------------------------------------------------------|
a -1-------------1-1---------------1-------------1---1-1---3---1----|
d -----------------------------3------------------------------------|

g ------------------------------------------------------------------|
d ------------------------------------------------------------------|
a -0-------------0-0-------------3-4-5----5--------0---0------------|
d ----------------------------------------------(5)--------0--------|

g ---------------------------------3---3----------------------------|
d -----------------------------3---------3--3-----------------------|
a -1-------------1-1-------------------------------1-------3---1----|
d ------------------------------------------------------------------|

g ------------------------------------------------------------------|
d ------------------------------------------------------------------|
a -0-------------0-0---------3-3-4-5-------5-------0---0------------|
d ----------------------------------------------(5)--------0--------|

g ------------------------------------------------------------------|
d ------------------------------------------------------------------|
a -------------0----------------------------------------------------|
d -5---5------------------------------------------0---------------5-|

g ------------------------------------------------------------------|
d ------------------------------------------------------------------|
a -------------0---------/12\---------3-0-3-0-3-0-3/5-----3---------|
d -----5------------------------------------------------------------|

g ------------------------------------------------------------------|
d ------------------------------------------------------------------|
a -1-------1-----0-------3-3---4---5---0----------------------------|
d -----------------------------------------0-------3-----3-5---3----|

g ------------------------------------------------------------------|
d -------------------------------------3---3-5-----3----------------|
a -1-------1-----0-------3-3---4---5---------------------0-3-5-3----|
d -----3------------------------------------------------------------|

g ------------------------------------------------------------------|
d ------------------------------------------------------------------|
a -1-------1-----0-------3-3---4---5---1----------------------------|
d -----3-----------------------------------0-------3-----3-5---3----|

g ------------------------------------------------------------------|
d -------------------------------------3---3-5-----3----------------|
a -1-------1-----0-------3-3---4---5---------------------0-3-5-3----|
d -----3------------------------------------------------------------|

g ------------------------------------------------------------------|
d ------------------------------------------------------------------|
a -1-------1-----0-------3-3---4---5---0----------------------------|
d -----3-----------------------------------0-------3-----3-5---3----|

g ------------------------------------------------------------------|
d -------------------------------------3---3-5-----3----------------|
a -1-------1-----0-------3-3---4---5---------------------0-3-5-3----|
d -----3------------------------------------------------------------|

g ------------------------------------------------------------------|
d ------------------------------------------------------------------|
a -1--------1----0-------3-3---4---5---0----------------------------|
d -----3-----------------------------------0-------3-----3-5---3----|

g ------------------------------------------------------------------|
d -------------------------------------3---3-5-----3----------------|
a -1-------1-----0-------3-3---4---5---------------------0-3-5-3----|
d -----3------------------------------------------------------------|

solo begins
g ------------------------------------------------------------------|
d ------------------------------------------------------------3-----|
a -1---1-----1----0--0-0-----0-3-0-5-------0---------------3--------|
e ---------3----------------------------3------0---3----3-----------|

g -------------------------------------------------2---5-2-5-2-5-2--|
d ------------------------------------3---5-5-----------------------|
a -1---1-----1---0--0-0------0-3-0-5--------------------------------|
d ---------3--------------------------------------------------------|

g -5/7-----7-----6---------7---9--10---9-7-----------------0---2----|
d ------------------------------------------5/7--5-------3----------|
a ------------------------------------------------------------------|
e ------------------------------------------------------------------|

g -3----------------------------------------------------------------|
d -----3------------------------------------------------------------|
a -------1---1---0-------0-3---4---5---0----------------------------|
d ---------------------------------------0---0---3------3/12\-------|
solo ends

g ------------------------------------------------------------------|
d ------------------------------------------------------------------|
a -------------0----------------------------------------------------|
d -5---5------------------------------------------0---------------5-|

g ------------------------------------------------------------------|
d ------------------------------------------------------------------|
a -------------0---------/12\---------3-0-3-0-3-0-3/5---5-3---5-----|
d -----5------------------------------------------------------------|

g ------------------------------------------------------------------|
d ------------------------------------------------------------------|
a -1-------1-----0-------3-3---4---5---0----------------------------|
d -----------------------------------------0-------3-----3-5---3----|

g ------------------------------------------------------------------|
d -------------------------------------3---3-5-----3----------------|
a -1-------1-----0-------3-3---4---5---------------------0-3-5-3----|
d -----3------------------------------------------------------------|

g ------------------------------------------------------------------|
d ------------------------------------------------------------------|
a -1--------1----0-------3-3---4---5---0----------------------------|
d -----3-----------------------------------0-------3-----3-5---3----|

g ------------------------------------------------------------------|
d -------------------------------------3---3/5----5/7----7-7--------|
a -1-------1-----0-------3-3---4---5--------------------------------|
d -----3------------------------------------------------------------|

g -3----------------------------------------------------------------|
d -----3------------------------------------------------------------|
a ---------1-----0-------3-3---4---5---0----------------------------|
d -----------------------------------------0-------3-3---3-5---3----|

g ------------------------------------------------------------------|
d -------------------------------------3---3-5-----3----------------|
a -1-------1-----0-------3-3---4---5---------------------0-3-5-3----|
d -----3------------------------------------------------------------|

g ------------------------------------------------------------------|
d ------------------------------------------------------------------|
a -1-------1-----0-----0-------0-------0---5-----3-----3-0-2--------|
d -----------------------0-3-------0--------------------------------|

g ------------------------------------------------------------------|
d -------------------------------------3---3-5-----3----------------|
a -1-------1-----0-------3-3---4---5---------------------0-3-5-3----|
d -----3------------------------------------------------------------|

g ------------------------------------------------------------------|
d ------------------------------------------------------------------|
a -1-------1-----0-------------------------5-----3---------2--------|
d -------------------------3-------0--------------------------------|

g ------------------------------------------------------------------|
d -------------------------------------3---3-5-----3---3---3---3----|
a -1-------1-----0---------3---4---5--------------------------------|
d -----3------------------------------------------------------------|

g ------------------------------------------------------------------|
d ------------------------------------------------------------------|
a -1-------1-----0-----0-------0-------0---5-----3-----3-0-2--------|
d -----------------------0-3-------0--------------------------------|

g ------------------------------------------------------------------|
d ------------------------------------------------------------------|
a -1-------1-----0---0---3-3---4---5---0----------------------------|
d -----3-----------------------------------0-------3-----3-5---3----|

fading out
g ------------------------------------------------------------------|
d ------------------------------------------------------------------|
a -1-------1-----0---0---3-3---4---5---0----------------------------|
d -----3-----------------------------------0-----3-------3-5---3----|

g ------------------------------------------------------------------|
d ------------------------------------------------------------------|
a -1-------1-----0-------3-3---4---5---0-------------------1--------|
d -----3-----------------------------------0-----3---3---3-----3----|

g ------------------------------------------------------------------|
d ------------------------------------------------------------------|
a -1---1-----1----0--0-0-----0-3-0-5-----0--------------------------|
e ------------------------------------3------0---3---3-3-----3-3----|

g -----------------------------------|
d -----------------------------------|
a -1--------1----0--0-0------3-3-4-5-|
e -----3-----------------------------|
Suggest correction
Creating personal tab
Creating personal tab
You can edit any tab online and save it as your Personal.

You can edit, replace or remove any tab part or add personal notes – all changes will be seen only by you.

Personal tabs can be accessed anytime from any device, even offline.
Learn more »
Give kudos to tab author, rate the tab!
1 2 3 4 5
comments
print report bad tab
guest
Wanna post a correction for this tab? Suggest correction