Oops, an error
Loading. Please wait.

Closer To You Tab

version 2
version 2

Whole song

11,694 views 9 this week
no commentswrite comment
1 2 3 4 5
x 3
add to favorites
launch autoscroll
font size
0
reset
how to read this tab
guitar tuner
Autoscroll
slow
fast
+/-
esc
set tempo
stop
Help us to improve Ultimate-Guitar.com Take our survey!
×
Author
Difficulty
Capo
intermediate
4th fret
------------------------------------------------------------------
                   Brandi Carlile - Closer To You
------------------------------------------------------------------

Tabbed by: Super Emo Kid
Email: social_outcast_2@yahoo.com

Notes: Capo 4th fret, the bass note in these chords should be fairly
prominent in your strumming, as this song has a walking bassline.
Feel free to email me with any questions/comments.

Chords Used:
    G    D/F#  Em7    D    G/B  Am/C    C   Cmaj9   Am
E:--3--|--2--|--3--|--2--|--3--|--0--|--0--|--X--|--0--|
B:--3--|--3--|--3--|--3--|--3--|--1--|--1--|--1--|--1--|
G:--0--|--2--|--0--|--2--|--0--|--2--|--0--|--0--|--2--|
D:--0--|--0--|--2--|--0--|--0--|--2--|--2--|--0--|--2--|
A:--2--|--X--|--2--|--0--|--2--|--3--|--3--|--2--|--0--|
E:--3--|--2--|--0--|--X--|--X--|--X--|--X--|--X--|--X--|

RIFF 1
E:------------------0---0-----|-------------------0---|
B:---0h1----0-----3---1---1p0-|---0h1-----0-----3---1-|
G:---0---0--0-------0---0-----|---0---0---0-------0---|
D:---0h2----0-0---4---2---2p0-|---0h2-----0-0---4---2-|
A:----------------------------|-----------------------|
E:-3------3-----3-------------|-3-------3-----3-------|


RIFF 2
E:---------------------------------|
B:-----3----------3----------0-----|
G:-------0----------0----------0---|
D:---------0----------0----------0-|
A:---------------------------------|
E:-3-3--------2-2--------0-0-------|

========================================================

RIFF 1

G                    D/F#          Em7
It's hard to let the miles pass me by

D  G/B Am/C             G              D/F#
Yellow lines that blend together in my eyes

Am                   G                 D/F# G    C
And when the seasons change again then  I   will too

Am             G  D         RIFF 1
I just want to be closer to you


G                  D/F#            Em7
I'm staring out at endless rows of green

D     G/B Am/C         G                 D/F#
There are miles of hay like I have never seen

Am                         G                   D/F#   G    C
Just when you think you've had enough and your dreams come true

Am             G  D         G
I just want to be closer to you


Am         G               C             C    Cmaj9  Am
Oh my mind wanders through all that I've been hiding from

Am      G              C    Cmaj9
I tried not to let you down

Am    G         C           C   Cmaj9     Am
Now I wonder if I've been doin' something wrong

Am             G                C-G/B-Am-D-RIFF 1
Help me get my feet back on the ground


G                D/F#        Em7
Tomorrow I'll be lying under you

D   G/B Am/C             G            D/F#
With a heart of gold and arms to fall into

Am                      G                   D/F# G  C
I know that there might come a day where my life is through

Am                 G  D         G
But I just want to be closer to you

Am         G               C             C    Cmaj9  Am
Oh my mind wanders through all that I've been hiding from

Am      G              C    Cmaj9
I tried not to let you down

Am    G         C           C   Cmaj9     Am
Now I wonder if I've been doin' something wrong

Am             G                C-G/B-Am-D-RIFF 1
Help me get my feet back on the ground


RIFF 2
Someday we might learn to tell the truth

D  G/B   Am/C          G                D/F#
We might even find the fountains of our youth

Am            G                 D/F# G   C
We all needed something real we all need proof

Am             G  D         Em7
I just want to be closer to you

Am             G  D         RIFF 1  G
I only want to be closer to you
Suggest correction
Give kudos to tab author, rate the tab!
1 2 3 4 5
comments
print report bad tab
guest
You may want to rate the tab now too:
select rating
Wanna post a correction for this tab? Suggest correction