Oops, an error
Loading. Please wait.

Follow Tab

version 2
version 2

Whole song

438 views 1 this week
no commentswrite comment
1 2 3 4 5
please rate
add to favorites
launch autoscroll
font size
0
reset
how to read this tab
guitar tuner
Autoscroll
slow
fast
+/-
esc
set tempo
stop
Help us to improve Ultimate-Guitar.com Take our survey!
×
Capo
4th fret
Follow
Brandi Carlile

Capo 4


    G    Gm
E:--3----3-------|
B:--3----3-------|
G:-------3-------|
D:-------5-------|
A:--2----5-------|
E:--3----3-------|

1)
E:------3------3-------3-------3---|
B:----3--3---3---3---3---3---3---3-|
G:--0------0-------0------0--------|
D:---------------------------------|
A:---------------------------------|
E:---------------------------------|

2)
E:-----------------------------------|
B:-----3-------3-------3-------------|
G:---4---4---4---4---4---4-----------|
D:-4-------4-------4-------4---------|
A:-----------------------------------|
E:-----------------------------------|

3)
E:-----1-------1-------1-------------|
B:---0---0---0---0---0---0-----------|
G:-0-------0-------0-------0---------|
D:-----------------------------------|
A:-----------------------------------|
E:-----------------------------------|

4)
E:-----------------------------------|
B:-----------------------------------|
G:-----0-------0-------0-------------|
D:---2---2---2---2---2---2-----------|
A:-3-------3-------3-------3---------|
E:-----------------------------------|

5)
E:-----------------------------------|
B:-----------------------------------|
G:-----5-------5-------5-------------|
D:---5---5---5---5---5---5-----------|
A:-3-------3-------3-------3---------|
E:-----------------------------------|






Intro: 1)

1) [G]					  2) [Bm]
Follow your heart and see where it might take you
			       	3) [G7]
Don't let the world outside there break you
			   4) [C]
They know not who you are inside
	5) [Cm] 	1) [G]
They have never felt your hell
	5) [Cm]	     Cm
Don't ever let them crack...

G				   Bm
Hold out I know you feel it getting cold out
			     G7
Without the blanket for your soul now
			     C
Before you know it you'll be frozen
    Cm		     G
You have to see this through
Cm			      
There's no one here but you


D		       F#m
I feel the rain coming down
D			       G
It reminds me of who I used to be
    Gm			D
But now that's nothing more
	  Gm
Then a memory

G				    Bm
Don't go, to sleep and cry because tomorrow
			G
If you let it it will swallow
			     G7
You up and none of this will matter
     Cm	         G
Will matter anymore

Cm		
Ooohoo


  D		       F#m
I feel the rain coming down
D			       G
It reminds me of who I used to be
    Gm			D
But now that's nothing more
	  Gm
Then a memory

G   Bm    C   Cm   G   Cm   G Cm


CHORUS
D		       F#m
I feel the rain coming down
D			       G
It reminds me of who I used to be
    Gm			D
But now that's nothing more
    Gm			D
But now that's nothing more
	  Gm
Then a memory

1) [G]				        2) [Bm]
Follow your heart and see where it might take you
				  3) [G7]
Don't let the world outside there break you
		          4) [C]
They know not who you are inside
	  5) [Cm]	   1) [G]
They have never felt your hell
	5) [Cm]	      Cm
Don't ever let them crack...
	      G
Your shell...



Suggest correction
What's this?
You can suggest a correction to this tab. Community and Mods will review your correction and vote to approve or reject it.
comments
We did not receive enough feedback on this tab! Please rate:
print report bad tab
1 2 3 4 5
guest
You may want to rate the tab now too:
select rating
Please do not post tabs as comments. Select "correction" instead!