Oops, an error
Loading. Please wait.

I Belong To You chords

version 2
version 2

Whole song

1,748 views 12 this week
no commentswrite comment
1 2 3 4 5
x 3
add to favorites
×
Save as Personal and add changes to this tab that will be seen only by you. Learn more ›
×
You can save this tab as Personal to edit and correct it or add notes. All changes will be seen only by you. Learn more »
launch autoscroll
font size
0
reset
transpose
0
reset
simplify chords
display chords
guitar tuner
edit
Autoscroll
slow
fast
+/-
esc
set tempo
stop
Strumming
There is no strumming pattern for this song yet. and get +5 IQ
Capo 4

Intro riff (USE THE CAPO)
e|---------------------------------|-----------------------------------||
B|---------------------------------|-------0-------1-------1-----------||
G|-------0-------0-------0---------|-----0-------0-------0---------0-o-||
D|-----2-------0-------0-----------|---0-----0h2-----0h2---------0---o-||
A|---2-------2-------2-----0---2---|-3-----------------------2h3-------||
E|-0-------2-------3---------------|-----------------------------------||
   Em7   Dsus4/F#  G                 G/C     C               G/B

e|---------------------------------|---------------------------------|
B|---------------------------------|-------0-------0-------0-------0-|
G|-------0-------0-------0---------|-----0-------0-------0-------0---|
D|-----2-------0-------0-----------|---0-----0h2-------2-----0h2-----|
A|---2-------2-------2-----0---2---|-3---------------3---------------|
E|-0-------2-------3---------------|---------------------------------|
   Em7   Dsus4/F#  G                 Cmaj9

e|---------------------------------|---------------------------------|---------------------------------|
B|---------------------------------|-------0-------0-------0-------0-|-------0-------0-------0-------0-|
G|-------0-------0-------0---------|-----0-------0-------0-------0---|-----0-------0-------0-------0---|
D|-----2-------0-------0-----------|---0-----0h2-------2-------0-----|---0-------0-------0-------0-----|
A|---2-------2-------2-----0---2---|-3---------------3-------3-------|-3-------3-------3-------2-------|
E|-0-------2-------3---------------|---------------------------------|---------------------------------|
   Em7   Dsus4/F#  G                 Cmaj9                                                     G/B


ORDER: I V1 V2 C1 V3 C2 INT V4 O


[INTRO]
Em7 Dsus4/F# G  | G/C  C  G/B |
Em7 Dsus4/F# G  | G/C  C  G/B |
Em7 Dsus4/F# G  | Cmaj9       |
Em7 Dsus4/F# G  | Cmaj9       |     G/B |


[VERSE 1]
     Em7     Dsus4/F#     G                  G/C
Last night I had     the exact same dream as you
  Cmaj7                G                   D            Em
I killed a bird to save your life, and you gave me your shoes,
       C                     G              C       G/B      Am
Said, "clip my wings and walk my miles" and I said "I  would too."
            D7                      G        G/B G   G/A G/B
Then I woke up, and wasn't going to tell you.


[VERSE 2]
  G                  G/A     G/B     Cmaj9
Today I sang the same   damn tune as you.
        C                   G               D                Em
It was "Lady in Red". I hate that song, and I know you do too
    C               G                    C      G/B       Am
You didn't catch me singing along, but I always sing with you
          D7                            G        G/B G  G/A G/B
Nice and quietly, cause I don't want to stop you.


[CHORUS 1]
    C                     D                 Em                  C    
  I know I could be spend - ing a little too  much time with you
       C                    D              B                Em E7
  But "time" and "too much" don't belong together like we do
     Am7              D7              B                Em
  If I  had all my yes - terdays, I'd give them to you too.
C             Em D/F# G     Cmaj9    Gadd9/B   Em  D/F# G    Cmaj9
  I belong to you       now.     I belong   to you. 


[VERSE 3]
  Em      D/F#       G                     Cmaj9
I see the world the exact same way that you     do
   Cmaj9              G                  D                Em
We lend our hands and take our stands in tandem when we do
       C               G               C      G/B       Am7
When I lied and said I knew the way, I hid my eyes from you.
                   D7                             G        G/B G  G/A G/B
I still don't know why, I probably didn't want to scare you.


[CHORUS 2]
    C                     D                 Em                  C    
  I know I could be spend - ing a little too  much time with you
       C                    D              B             B7  Em E7
  But "time" and "too much" don't belong together like we  do
     Am7              D7              B                Em
  If I  had all my yes - terdays, I'd give them to you too.
C             Em D/F# G     Cmaj9    Gadd9/B   Em  D/F# G    Cmaj9
  I belong to you       now.     I belong   to you.  


[INTERLUDE]
Em7 Dsus4/F# G   | Cmaj9   G/B |
Em7 Dsus4/F# G   | Cmaj9       |    G/B |


[VERSE 4] - subdued
Em7                                 C
I'm gonna die the exact same day as you
       C                        G                  D               Dsus2
On the Golden Gate Bridge, I'll hold your hand and howl at the moon.
C                   G                C     G/B       Am7
Scrape the sky with tired eyes, and I will come find you
            D7                             G        G/B G  Dsus4/F#
And I ain't scared, cause I am never gonna miss you.


[OUTRO]
            Em7     C            G    Dsus4/F#
I belong to you now. I belong to you.
            Em7     C            G    Dsus4/F#
I belong to you now. I belong to you.


(with all instruments)
            Em7     C            G    Dsus4/F#
I belong to you now. I belong to you.
            Em7     C            G    Dsus4/F#
I belong to you now. I belong to you.
            Em7     C            G    Dsus4/F#
I belong to you now. I belong to you.
            Em7     C            G    Dsus4/F#
I belong to you now. I belong to you.

            Em7     C            G    Dsus4/F#
I belong to you now. I belong to you.
            Em7     C            G    Dsus4/F#
I belong to you now. I belong to you.

(instruments out)
            Em7     Cmaj9
I belong to you now.     I belong to you.
Suggest correction
Creating personal tab
Creating personal tab
You can edit any tab online and save it as your Personal.

You can edit, replace or remove any tab part or add personal notes – all changes will be seen only by you.

Personal tabs can be accessed anytime from any device, even offline.
Learn more »
Give kudos to tab author, rate the tab!
1 2 3 4 5
comments
print report bad tab
guest
You may want to rate the tab now too:
select rating
Wanna post a correction for this tab? Suggest correction