Oops, an error
Loading. Please wait.

Late Morning Lullaby Chords

17,565 views 12 this week
no commentswrite comment
1 2 3 4 5
accurate
x 7
add to favorites
launch autoscroll
font size
0
reset
transpose
0
reset
simplify chords
display chords
guitar tuner
Tab Pro tools
  • play this tab
  • loop segment
  • change instrument
  • show fretboard
  • metronome
×
Best way to learn
"Late Morning Lullaby"
Autoscroll
slow
fast
+/-
esc
set tempo
stop
Contributor
Tuning
E A D G B E
intro
G/Am/Bm/C/ x2

V1:
G                           Am
As soon as my eyes shut the slide show begins

Bm                        Cm
Yesterday is gone now and panic sets in

       G                          Am
With a weight upon my chest and a ghost upon my back

        Bm                   C
And the numbing sensation of everything I lack that leaves me

PC:
G         D(onF#)   Em7       Bm
Dreaming, dreaming, dreaming,

     C    D     G
Your real world away

Ch:
    C          Am                    G
and beautiful, beautiful bright eyes, lie

     C          Am                    G
Only beautiful, beautiful bright eyes, cry

         C/Bm+5[x2x03x]/Am7/D/G/
Singing, Late morning lullaby

V2
The first sign of morning is gray and alarming
It's so disappointing the day has come so soon
While the rest of the world greets the day and feels new
I will push it away just like I always do, I will be

PC:
Ch:

I would darken my window so I can fall asleep
While the critics frown down on the hours
I keep that leave me
Dreaming, dreaming, dreaming,
Your real world away



& intro solo goes like this.
e|--------------------------------------------------------------------|
B|--------------------------------------------------------------------|
G|-------------------------------------------------------7-5-4--------|
D|------5-7p5------------5-7p5---5h7--------5-7p5-77/9---------77-5---|
A|--5h7-------7\-----5h7-------7--------5h7---------------------------|
E|---------------3----------------------------------------------------|

e|--------------------------------------------------------------------|
B|--------------------------------------------------------0-----------|
G|------5~~~~--------------------5~~------------------7-----5-4-------|
D|------5h7p5------------5h7p5---5h7--------5h7p5-7/9~~---------7-5---|
A|--5h7-------7\-----5h7-------7--------5h7---------------------------|
E|---------------3----------------------------------------------------|

e|-------------------|
B|-------------------|
G|------5~~-5--------|
D|--5~~-5h7-5--------|
A|--5h7-------7\-----|
E|---------------3---|

:)
comments
print report bad tab
I want to post or [tab]
guest
You may want to rate the tab now too:
select rating
Please do not post tabs as comments. Select "correction" instead!