Oops, an error
Loading. Please wait.

Over You Chords

3,872 views 6 this week
no commentswrite comment
1 2 3 4 5
please rate
add to favorites
launch autoscroll
font size
0
reset
transpose
0
reset
display chords
guitar tuner
Autoscroll
slow
fast
+/-
esc
set tempo
stop
Help us to improve Ultimate-Guitar.com Take our survey!
×
Author
Capo
4th fret
-------------------------------------------------------------------------------
                  Over You - Brandi Carlile
-------------------------------------------------------------------------------
Tabbed by Elmira ////.


tuning: Standard
Capo 4 - all chords relative to capo


All C and E chords are played like this:

   C        (C)       (C)         C
e|-0-0-0-0---0-0-0-0---0-0-0-0---0-0-0-0--------|
B|-1-1-1-1---1-1-1-1---1-1-1-1---1-1-1-1--------|
G|-0-0-0-0---0-0-0-0---0-0-0-0---0-0-0-0--------|
D|-2-2-2-2---0-0-0-0---3-3-3-3---2-2-2-2--------|
A|-3-3-3-3---3-3-3-3---3-3-3-3---3-3-3-3--------|
E|----------------------------------------------|

   E        (E)      (E)         E
e|----------------------------------------------|
B|----------------------------------------------|
G|-1-1-1-1---1-1-1-1---1-1-1-1---1-1-1-1--------|
D|-2-2-2-2---0-0-0-0---3-3-3-3---2-2-2-2--------|
A|-2-2-2-2---2-2-2-2---2-2-2-2---2-2-2-2--------|
E|----------------------------------------------|

Intro:   C    E    F    Fm


Verse:
C                               E 
I heard the news today, I guess that’s what I thought you'd say.
   F                                             Fm
I guess you thought I'd care but guess what I don't, so you can go to hell. 
C                                E  
I wore your shirt again to bed, but that was way back when, 
   F                                   Fm
and I don't want to touch you like I did, as stupid as I've been. 


Chorus:
C           E
I’m overjoyed
             F
I’m overwhelmed
             Fm
Please understand, I am over you.


Verse:
C                            E                           F                         
I use to need you in my bones, I use to need you in my bed. 
                            Fm                                 C    
I use to need you just to breathe, but I think that was in my head.
                             E                          F        
 I use to call you on the phone, hoping you were all alone, 
                            Fm
so you might put me in your car. Just look at how I've grown.



Chorus(x2):
C           E
I’m overjoyed
             F
I’m overwhelmed
              Fm
Please understand, I am over you.


G                                     F               C
Yeah but if you bash your eyes and whisper pretty please, 
 G                                      F            C
I might go there again cause you were always such a tease. 
          Am                        G
But I don’t want you. And I don’t need you here tonight
          F                                Fm
 I just wanna know that I will wake up confident my head is screwed on tight.

C              E           F
Fm                 
     Listen to me,


Chorus(x2):
C        E
I’m overjoyed
          F
I’m overwhelmed
            Fm
Please understand, I am over you.

-end on C



Suggest correction
Give kudos to tab author, rate the tab!
1 2 3 4 5
comments
print report bad tab
guest
You may want to rate the tab now too:
select rating
Please do not post tabs as comments. Select "correction" instead!