Oops, an error
Loading. Please wait.

Raise Hell Chords

version 1
version 1

Whole song

24,370 views 57 this week
no commentswrite comment
1 2 3 4 5
excellent!
x 15
add to favorites
launch autoscroll
font size
0
reset
transpose
0
reset
simplify chords
display chords
guitar tuner
Autoscroll
slow
fast
+/-
esc
set tempo
stop
Help us to improve Ultimate-Guitar.com Take our survey!
×
Author
Difficulty
intermediate
Raise Hell
Brandi Carlile


The studio version of this song will probably sound a bit different than the
one I heard on YouTube, especially since this is an acoustic version. The
lyrics might not me right either. Here's the link to the video I tabbed it from:
http://www.youtube.com/watch?v=o9mIFBpgyPE
I didn't find it necessary to tab the song for two guitars, 'cause the part
Tim plays is just like Brandi's except he plays some of the chords higher up
the neck. The song is very straight forward, but I put both Brandi's and
Tim's chords below just in case. And also Tim's riff and solo.


Notes:
As far as I can see in the videos I've found on YouTube they play an F#, but you may as 
well play F#m.
(s) = strum
(sm) = strum then mute
* = riff
The parts that says "no guitar" sounds good with a bit of muted strumming.
When playing Tim's solo and riff, mute the strings you're not playing.
Brandi plays the first verse alone, except for when Tim plays the riff.



Brandi's chords:                         Tim's chords:

     Bm  D6add9   E   A   F#  F#7        Bm  E   A
e ---2-----2------0---0---2----2---------7---0---5---|
B ---3-----3------0---2---2----2---------7---0---5---|
G ---4-----4------1---2---3----3---------7---1---6---|
D ---4-----4------2---2---4----2---------9---2---7---|
A ---2-----0------2---0---4----4---------9---2---7---|
E ---2-----0------0---x---2----2---------7---0---5---|



Tim's riff:
   (Bm                      D E   Bm                    D A)
e -----------------------------------------------------------|
B -----------------------------------------------------------|
B -----------------------------------------------------------|
D --x-x-x-x-x-x-x-x-x-x-x-x-x-x-x-x-x-x-x-x-x-x-x-x-x-x-x-x--|
A --x-x-x-x-x-x-x-x-x-x-x-x-5-7-x-x-x-x-x-x-x-x-x-x-x-x-5-x--|
E --7-7-7-7-7-7-7-7-7-7-7-7-x-x-7-7-7-7-7-7-7-7-7-7-7-7-x-5--|

OR the easier way

   (Bm                      D   E Bm                        D A)
e ---------------------------------------------------------------|
B ---------------------------------------------------------------|
B ---------------------------------------------------------------|
D --x-x-x-x-x-x-x-x-x-x-x-x-x---x-x-x-x-x-x-x-x-x-x-x-x-x-x-x-x--|
A --x-x-x-x-x-x-x-x-x-x-x-x-x---x-x-x-x-x-x-x-x-x-x-x-x-x-x-x-x--|
E --7-7-7-7-7-7-7-7-7-7-7-7-10-12-7-7-7-7-7-7-7-7-7-7-7-7--10-5--|

* = riff



[Intro]
Bm  D6add9  Bm  D6add9  Bm  D6add9  Bm  D6add9


Bm                                           E                Bm    D6add9
I've been down with a broken heart since the day I learned to speak
    Bm                                    E               Bm     D6add9
The devil gave me a crooked start when he gave me crooked feet
    Bm                        E               Bm      D6add9
But Gabriel he came to me and kissed me in my sleep
             Bm(sm)                                    Bm*
And now he's singing like an angel un-til I'm six feet deep


Bm  D6add9  Bm  D6add9


[Verse 1]
  Bm                          E             Bm    D6add9
I found myself an old man and tattooed on a sign
  Bm                          E              Bm     D6add9
I set my mind a-wanderin' and walk a crooked line
        Bm                               E                Bm    D6add9
And you had in mind to keep me quiet and although you can try
Bm(sm)                              F#(sm)          Bm
Better men have hit their knees and bigger men have died


[Chorus]
          A            Bm*  D6add9   Bm
You gotta raise, raise hell
          A            Bm*  D6add9   Bm
There's a story no one tells
          E            Bm*  D6add9   Bm
You gotta raise, raise hell
     (E)    F#        Bm*
Come on now ring that bell


Bm  D6add9  Bm  D6add9


[Verse 2]
  Bm                               E                    Bm    D6add9
I came upon a lightning strike and eyes of bright clear blue
  Bm                                   E                Bm    D6add9
I took his tie from around my neck and gave my heart to you
  Bm                              E               Bm      D6add9
I sent my love across the sea and though I didn't cry
     Bm(sm)                             F#(sm)        Bm
That voice will haunt my every dream un-til the day I die


[Chorus]
          A            Bm*   D6add9   Bm
I'm gonna raise, raise hell
          A            Bm*   D6add9   Bm
There's a story no one tells
          E            Bm*   D6add9   Bm
You gotta raise, raise hell
     E      F#        Bm x 4
Come on now ring that bell



Brandi's part when Tim plays the solo:

Bm(sm) x 8

Bm till the end of the solo, end on Bm(sm)



Phil's solo part:


Tim's riff when Brandi STRUMS Bm:

e -----------------------------------------------------------|
B -----------------------------------------------------------|
B -----------------------------------------------------------|
D --x-x-x-x-x-x-x-x-x-x-x-x-x-x-x-x-x-x-x-x-x-x-x-x-x-x-x-x--|
A --x-x-x-x-x-x-x-x-x-x-x-x-5-7-x-x-x-x-x-x-x-x-x-x-x-x-5-x--|
E --7-7-7-7-7-7-7-7-7-7-7-7-x-x-7-7-7-7-7-7-7-7-7-7-7-7-x-5--|

e --------------------------------------------------|
B --------------------------------------------------|
G --------------------------------------------------|
D --x-x-x-x-x-x-x-x-x-x-x-x-x-x---------------------|
A --x-x-x-x-x-x-x-x-x-x-x-x-5-7--5h7-7-7-5----------|
E --7-7-7-7-7-7-7-7-7-7-7-7-x-x------------5-7-5-7--|

Play twice!



Tim's solo, when Brandi PLAYS Bm:

e ------------------------------------------------------------------|
B --10b12r10-7------------------------------------------------------|
G --------------9-7---7h9-7-----------------------------------------|
D ------------------9-------9-7---7-7h9-7---------------------------|
A ------------------------------9----------9-7-5---5---------5------|
E -----------------------------------------------7---7-7p5-7--------|

e ------------------------------------------------------------------|
B --10b12r10-7------------------------------------------------------|
G --------------9-7---7h9-7-----------------------------------------|
D ------------------9-------9-7---7-7h9-7---------------------------|
A ------------------------------9----------9-7-5---5-------5--------|
E -----------------------------------------------7---7-5-7---5-7----|



[Verse 3]
(no guitar)
I dug a hole inside my heart to put you in your grave
                                                F#7
At this point it was you and me and mama didn't raise no slave
    Bm(sm)  Bm(sm)  Bm(sm)    Bm(sm)    E(sm)     E(sm)  Bm(sm) x 4
You took my face in both your hands and looked me in the eye
    Bm(sm)                                                (muted strumming)
And I went down with such a force that in your grave I'll lie


          A            Bm*   D6add9   Bm
You gotta raise, raise hell
          A              Bm*   D6add9   Bm
There's a story no one's tellin'
          E            Bm*   D6add9   Bm
You gotta raise, raise hell
     E      F#        Bm
Come on now ring that bell
     E      F#        Bm
Come on now ring that bell
     E      F#        Bm
Come on now ring that bell
     E(sm)            Bm(sm)
Come on now ring that bell



************************************

| x  Dead note
| h  Hammer-on
| p  Pull-off
| r  Release
| b  Bend  

************************************
Suggest correction
comments
print report bad tab
guest
You may want to rate the tab now too:
select rating
Wanna post a correction for this tab? Suggest correction