Oops, an error
Loading. Please wait.

Story Tab

version 2
version 2

Whole song

Interactive

37,349 views 12 this week
no commentswrite comment
1 2 3 4 5
x 16
add to favorites
launch autoscroll
font size
0
reset
how to read this tab
guitar tuner
Autoscroll
slow
fast
+/-
esc
set tempo
stop
Help us to improve Ultimate-Guitar.com Take our survey!
×
E---7--9--11--11--7--2--0----|-11--9--7--9--6--2--0---|--9--7--6--7--4---------|
A--------------------------4-|----------------------2-|----------------4--2--0-|
D----------------------------|------------------------|------------------------|
G----------------------------|------------------------|------------------------|
B----------------------------|------------------------|------------------------|
E----------------------------|------------------------|------------------------|


E---4--6--7--7--4--0-----------------------------------------------------------|
A---------------------0--------------------------------------------------------|
D------------------------1-----------------------------------------------------|
G------------------------------------------------------------------------------|
B------------------------------------------------------------------------------|
E------------------------------------------------------------------------------|
Suggest correction
comments
print report bad tab
guest
You may want to rate the tab now too:
select rating
Wanna post a correction for this tab? Suggest correction