Oops, an error
Loading. Please wait.

Story tab

version 3
version 3

Whole song

Interactive

115,340 views 1 this week
3 commentsread comments
1 2 3 4 5
x 4
add to favorites
×
Save as Personal and add changes to this tab that will be seen only by you. Learn more ›
×
You can save this tab as Personal to edit and correct it or add notes. All changes will be seen only by you. Learn more »
launch autoscroll
font size
0
reset
how to read this tab
guitar tuner
edit
Autoscroll
slow
fast
+/-
esc
set tempo
stop
   Song: The Story
   Artist: Brandi Carlile
   Album: The Story
   2007

   Tabbed by: Rob Mooney themaxx.rob@gmail.com

   Standard Tuning
   Capo on 2nd fret
  
   CHORDS:
   -------
            EADGBe         
   A       (x02220)   
   E       (022100)   
   F#m     (244222)    
   Asus4   (x02230) 


  So the actual chords are
            EADGBe         
   B       (x24442)   
   F#      (244322)   
   G#m     (466444)    
   Bsus4   (x24452)   
                    
   
   INTRO:
   ------
   play twice
                  
   e|-----------------------|
   B|-------2-------2---3---|
   G|-----2---2---2---2-2---|
   D|---2-------2-------2---|
   A|-----------------------|
   E|-----------------------|

  or without capo
   e|-----------------------|
   B|-------4-------4---5---|
   G|-----4---4---4---4-4---|
   D|---4-------4-------4---|
   A|-----------------------|
   E|-----------------------|


             A                                  E
All of these lines across my face, tell you the story of who I am
        F#m                                   Asus4
So many stories of where I've been, and how I got to where I am
          A                  E                     F#m           Asus4
But these stories don't mean anything, when you've got no one to tell them to
     A     E              A   Asus4(2 strums) A(one strum)
It's true, I was made for you

            A                                  E
I climbed across the mountain tops, swam all across the ocean blue
                  F#m                                       Asus4
I crossed all the laws and I broke all the rules and baby I broke them all for you    
           A            E                  F#m                 Asus4        
Oh because even when I was flat broke, you made me feel like a million bucks
  A     E              A   Asus4(2 strums) A(one strum)
You do, I was made for you


  Guitar Solo:
  ------------
   I'm workin' on it. The backing rhythm is the same as the verse / chorus

   A    E    F#m    Asus4    A E F#m Asus4 A E A Asus4(2 strums) A(one strum)


N.C.                                                     E
You see the smile that's on my mouth it's hidin' the words that don't come out
             F#m                                           Asus4
All of the friends who think that I'm blessed, they don't know my head is a mess
   A                     E             F#m                  Asus4
No they don't know who I really am and they don't know what I've been through
        A       E              A   Asus4(2 strums) A(one strum)
Like you do and I was made for you


--You get the idea.---

              A          E              A
Yea well it's true, that I was made for you
Suggest correction
Creating personal tab
Creating personal tab
You can edit any tab online and save it as your Personal.

You can edit, replace or remove any tab part or add personal notes – all changes will be seen only by you.

Personal tabs can be accessed anytime from any device, even offline.
Learn more »
comments
print report bad tab
3 comments total.
0 reply
themaxx_rob 10 May 19, 2007 10:26 PM

Guitar Solo:
------------
The backing rhythm is the same as the verse / chorus

A E F#m Asus4 A E F#m Asus4 A E A Asus4(2 strums) A(one strum)

from capo

e|--------8--10---------------------|-10-8-----8---------------------|
B|/10-11---------11-----------------|------11-------10---------------|
G|-------------------10---8---7-----|-------------------10--10-8-----|
D|----------------------------------|10---------------------------10-|
A|----------------------------------|--------------------------------|
E|----------------------------------|--------------------------------|

e|----------------------------------|--------------------------------|
B|---8-10-11--11--8-----------------|----8--10--11--11--8------------|
G|---------------------10--8--------|----------------------8---------|
D|10--------------------------10-8--|10-----------------------8------|
A|----------------------------------|----------------------------10--|
E|----------------------------------|--------------------------------|

or without capo

e|--------10--12---------------------|-12-10-----10-------------------------|
B|/12-13----------13-----------------|------13-------12---------------------|
G|--------------------12---10---9----|12-----------------12--12-10----------|
D|-----------------------------------|-----------------------------12-------|
A|-----------------------------------|--------------------------------------|
E|-----------------------------------|--------------------------------------|

e|-----------------------------------|--------------------------------------|
B|---10-12-13--13--10----------------|------10--12--13--13--10--------------|
G|---------------------12--10--------|--------------------------10----------|
D|12--------------------------12-10--|12----------------------------10------|
A|-----------------------------------|----------------------------------12--|
E|-----------------------------------|--------------------------------------|

0 reply
audeamus 20 Oct 15, 2009 01:51 PM

The last chord of each verse line is a D, not Asus4. See this video for proof: http://www.youtube.com/watch?v=Y72jRaoRvHs&feature=channel @ 42 seconds. Great tab though, thanks.

0 reply
2_Stand 139 Apr 15, 2010 09:14 PM

So according to RM's 'actual chords', the last verse chord is E.

guest
Wanna post a correction for this tab? Suggest correction