Oops, an error
Loading. Please wait.

Story Chords

version 5
version 5
19,401 views 6 this week
1 commentread comment
1 2 3 4 5
x 3
add to favorites
launch autoscroll
font size
0
reset
transpose
0
reset
simplify chords
display chords
guitar tuner
Autoscroll
slow
fast
+/-
esc
set tempo
stop
Help us to improve Ultimate-Guitar.com Take our survey!
×
Difficulty
intermediate
Tuning: Standard
Capo - 4th Fret
Intro:

e|---------------------------------------------------------------------------|
B|--------0--0---0---0/h2--------------0---0-- 0-- 0/2-----------------------|
G|-------0--0---0---0----------------0-- 0---0-- 0---------------------------|
D|---------------------------------------------------------------------------|
A|---------------------------------------------------------------------------|
E|----3------------------------3---------------------------------------------|

e|-----------------------------------------------------------------------------|
B|-------------0/h2/p----------------0/h2/p------------------------------------|
G|------------2--------------------2-----------------------0------------0------|
D|----------0--------------------0-----------------------2---2--------2---2----|
A|-----------------------------------------------------2-------2----2------2---|
E|-----0------------------------0--------------------0------------0--------0---|

Finish intro with finger plucking on C-Add9 / Gmaj/ D / Gmaj

Verse 1:
                  G                   G
All  of  these  lines  across  my  face

                  Dm
Tell  you  The  Story  of  who  I  am

             Em
So  many  stories  of  where  I've  been

               Cadd9
And  how  I  got  to  where  I  am

                G                     D
But  these  stories  don't  mean  anything

               Em               C
when  you've  got  no-one  to  tell  them  to

        G
It's  true

 D                   G
I  was  made  for  you


2v

               G
I  climbed  across  the  mountain  top

              Dm (harder strum)
swam  all  across  the  ocean  blue

                      Em
I crossed  all  the  lines and-I  broke  all  the  rules

          Cadd9
Baby  I   broke  them  all  for  you

         G                          D
Because  even  when  I  was  flat  broke

    Em                      C
You  made  me  feel  like a  million  bucks

     G
You  do

          D         G
I  was  made  for  you


Instrumental - strumming changes to a more soul rhythm

First time through full count each
(G / Dm / Em / Cadd9)

Second time through half time - notice note changes)
(G / D / Em / C / G / D / G...)

Last Verse - finger pick or light strum


                 G
You  see  the  smile  that's  on   my   mouth

                    Dm
It's  hiding  the  words  that  don't  come  out

                Em
All  of  our  friends  who  think   that i'm blessed

               Cadd9
They don't  know  my  head  is a mess

     G                      D
No  they  don't  know  who  I  really  am

     Em                         C
And  they  don't   know  what  I've  been   through

             G
Like  You  Do...

    D                  G
And I  was  made  for  you

(final - big and full strum pattern add soul)

                  G
All  of  these  lines  across  my  face

                  Dm
Tell  you  the  story  of  who  I  am

              Em
So  many  stories  of  where  i've  been

              Cadd9
And  how  I  got  to  where  I  am

             G                 D
No  they  don't  know  who  I  really  am

        Em                     C
And  they  don't  know  what  I've  been   through

            G
Like  You  do

     D                    G
And  I  was  made  for  you...

Tag the last line with G D G with finger pick or light strum
Suggest correction
Give kudos to tab author, rate the tab!
1 2 3 4 5
comments
print report bad tab
1 comment total.
0 reply
punkishness 21 Mar 09, 2009 04:49 PM

Dm doesnt sound right at all, i think it's D instead

guest
You may want to rate the tab now too:
select rating
Wanna post a correction for this tab? Suggest correction